Fu Manchu

Fu Manchu - Travel Agent guitar tab

"Travel Agent" by Fu Manchu, from the album "Daredevil".

transcribed by ded bob

tuning: D

intro riff

-----------------------------------

-----------------------------------

-----5-----5-----5------h-p--------

-----5-----5-----5-----5^7^5---5-7-

-0-0---0-0---0-0---0-0-------7-----

-----------------------------------

x x x x x x x x

-----------------------------------

------------------h-p--------------

-----5-----5-----5^7^5---5----h--5-

-----5-----5-----------7-----5^7---

-0-0---0-0---0-0-------------------

----------------------------------- (adlib...)

x x x x x x

verse riff (two guitars) x3

-------------------------------|---------------------------------|

-------------------------------|---------------------------------|

-2---------------------5---7---|-2----------------h------7---5---|

-2---5-7---5-7---5-7-5-5---7---|-2---5-7---5-7---5^7-5---7---5---|

-0---------------------3---5---|-0---------------------7-5---3---|

-------------------------------|---------------------------------|

chorus riff (strum with rhythm) x4

-----------------------------------

-----------------------------------

-----------------------------------

-------------10-10-7-7-------5-----

-5/7----------8--8-5-5-------3-----

-3/5-------------------------------

(after chorus)

-----------------------------------

-----------------------------------

-----------------------------------

-9---------------------------------

-7---------------------------------

-----------------------------------

(after second chorus) x4

------------------------------------|---------

------------------------------------|---------

------------------------------------|---------

-4--5-6------------9----------------|-11------

-2--3-4------------7----------------|--9------

------------------------------------|---------

Get this song at:  amazon.com sheetmusicplus.com

Share your thoughts

0 Comments found