Fu Manchu

Fu Manchu - Trapeze Freak guitar tab

"Trapeze Freak" by Fu Manchu.

From the Album "Daredevil".

Tabbed by SETCH. Brought to you by stickyhomer.

Tuning:-all strings down a full step.

eg(DGCFAD)

Riff 1. Intro

d|----------------------------------------------------|

A|----------------------------------------------------|

F|--------------------------------------then-noodle---|

C|----------------------7---------------like-a-mad----|

G|-7---------10---------5----------9----thing.--------|

D|-5---------8---------------------7------------------|

Riff 2. Main Riff.

d|----------------------------------------------------|

A|----------------------------------------------------|

F|----------------------------------------------------|

C|-7-5----------------------7-5-----------------------|

G|-----7-6-5-------3-4-5-3------7-6-5-------3-5-5-----|

D|-----------3-4-5--------------------3-4-5-----3-----|

Riff 3. Verse

d|----------------------------------------------------|

A|----------------------------------------------------|

F|----------------------------------------------------|

C|----------------------------------------------------|

G|-5--5--7-7-----------------5--5--7-7----------------|

D|-3--3sl5-5-5-5-5-5-5-5-----3--3sl5-5-5-5-5-5-5-5----|

Riff 4. Main Riff Key Change.

d|----------------------------------------------------|

A|----------------------------------------------------|

F|----------------------------------------------------|

C|-9-7----------------------9-7-----------------------|

G|-----9-8-7-------5-6-7-5------9-8-7-------5-7-7-----|

D|-----------5-6-7--------------------5-6-7-----5-----|

Riff 5. Interlude

d|----------------------------------------------------|

A|----------------------------------------------------|

F|-----------7--9-9------------------------5-7-8-7-5--|

C|-----------5sl7-7----------7-7-7---------5-7-8-7-5--|

G|-7--5--7-7-----------------5-5-5--5--7-7-3-5b6-5-3--|

D|-5--3sl5-5------------------------3sl5-5------------|

Riff 6.

d|----------------------------------------------------|

A|----------------------------------------------------|

F|----------------------------------------------------|

C|----7--5-----5--------7--7--5--7-7-5--8-------------|

G|-7--5--3--7--3--5--7--5--5--3--5-5-3--6-------------|

D|-5--------5--------5--------------------------------|

The song ends with a lead part which shadows this riff,

1 octave up, then goes into a outro solo.

Get this song at:  amazon.com sheetmusicplus.com

Share your thoughts

0 Comments found