Fu Manchu

Fu Manchu - Time To Fly guitar tab

"Time to Fly" by Fu Manchu.

From the Album "No One Rides for Free".

Tabbed by SETCH. Brought to you by stickyhomer.

Tuning:-all strings down a full step.

eg(DGCFAD)

As with a lot of Fu Manchu songs, parts are often echoed

by a second guitar, one octave higher. I haven't bothered

to tab these parts.

Riff 1. Main Riff.

d|---------------------------------------------------------|

A|---------------------------------------------------------|

F|---------------------------------------------------------|

C|---------------------------------------------------------|

G|-5-7--5-7--5-7--5-7--5-7--5-7--5--5-3-5-5b7r5-3----------|

D|-3-5--3-5--3-5--3-5--3-5--3-5----------------------------|

Riff 2. (it's time to fly..)

d|---------------------------------------------------------|

A|---------------------------------------------------------|

F|---------------------------------------------------------|

C|-7-7-5-7--12-12-12-12--14-14--7-7-5-7-12-12-12-12--14-14-|

G|----------10-10-10-10sl12-12----------10-10-10-10sl12-12-|

D|---------------------------------------------------------|

Riff 3. (solo backing)

d|---------------------------------------------------------|

A|---------------------------------------------------------|

F|---------------------------------------------------------|

C|---------------------------------------------------------|

G|-7-9--7-9--7-9--7-9--7-9--7-9--7--7-5-7-7b7r7-5----------|

D|-5-7--5-7--5-7--5-7--5-7--5-7----------------------------|

Riff 4. (It's time to fly..)

d|-------------------------------------------|

A|-------------------------------------------|

F|-------------------------------------------|

C|-----5-7---------5-7-7-7-7-7-8-------------|

G|-7-7-3-5---------7-7-3-5-5-5-5-5-6---------|

D|-5-5-------------5-5-----------------------|

Riff 5. (outro w.solo)

d|---------------------------------------------------------|

A|---------------------------------------------------------|

F|---------------------------------------------------------|

C|---------------------------------------------------------|

G|---------------------3-4-5----------------------3-4-5----|

D|-3-5--3-5--3-5--3-5---------3-5--3-5--3-5--3-5-----------|

Get this song at:  amazon.com sheetmusicplus.com

Share your thoughts

0 Comments found