Fu Manchu

Fu Manchu - Tilt guitar tab

"Tilt" by Fu Manchu, from the album "Daredevil".

transcribed by ded bob

tuning: D

intro riff

---------------------------------

---------------------------------

---------------------------------

-----5---5-----------------------

-7-7---7---7-7-5-7-7-7-8-8-8-9-9-

-----------------5-5-5-6-6-6-7-7-

main riff

---------------------------------

---------------------------------

---------------------------------

-----5---------------------------

-7-7---7---7-5---7-7-7-8-8-8-9-9-

-----------------5-5-5-6-6-6-7-7-

verse riff x3

---------------------------------

------------------------p--------

---------------------7-7^5------- (adlib this end riff)

---------------7-----------7-7~--

-9---9-----7---5-----------------

-7---7-----5---------------------

----------------------------------------------

----------------------------------------------

----------------------------------------------

----------------------------------------------

-9---9-----7---5---5-5-5-5-5-5-5-7-7-7-7-7----

-7---7-----5---3---3-3-3-3-3-3-3-5-5-5-5-5----

transition riff

------------------------------------

------------------------------------

------------------------------------

-----5--------5--------5-7-7^-5-----

-7-7---7~---7---7~---7----------7-5-

------------------------------------

chorus riff #2

-----------------------------------------------------

-----------------------------------------------------

-----------------------------------------------------

-9------------7--------------------------------------

-7------------5------------7------------9------------

---------------------------5------------7------------

----------------------------------------------------------------------

----------------------------------------------------------------------

----------------------------------------------------------------------

-9------------7-------------------------------------------------------

-7------------5------------7------------9---9-9-9-9-9-9-9-9-9-9-9-9---

---------------------------5------------7---7-7-7-7-7-7-7-7-7-7-7-7---

outro riff x3

-----------------|-----------------

-----------------|-----------------

-----------------|-----------------

-----------------|-9------------9-

-7-7-7-8-8-8-9-9-|-7------------7-

-5-5-5-6-6-6-7-7-|-0------------0--

Get this song at:  amazon.com sheetmusicplus.com

Share your thoughts

0 Comments found