Fu Manchu

Fu Manchu - Superbird guitar tab

"Superbird" by Fu Manchu.

From the Album "No One Rides for Free".

Tabbed by SETCH. Brought to you by stickyhomer.

Tuning:-all strings down a full step then drop low D to C

eg(CGCFAD)

Riff.1 Intro & main riff

d|--------------------------------------------------|

A|--------------------------------------------------|

F|--------------------------------------------------|

C|---------7-7---------------------7-7--------------|

G|---------5-5-3-5-5-3-5-3---------5-5-3-5-5-3-5-3--|

C|-0-0-0-0-----3-5-5-3-5-3-0-0-0-0-----3-5-5-3-5-3--|

Riff.2 Solid...

d|--------------------------------------------------|

A|--------------------------------------------------|

F|--------------------------------------------------|

C|--------------------------------------------------|

G|-5-3-6-3-0--0-0-0--------5-3-6-3-0--0-0-0---------|

C|-5-3-6-3-0--0-0-0--------5-3-6-3-0--0-0-0---------|

Riff.3 Interlude.

d|--------------------------------------------------|

A|--------------------------------------------------|

F|--------------------------------------------------|

C|--------------------------------------------------|

G|-----------3-3-3-3-5-5-----------3-3-3-3-5-5------|

C|-0-0-7-0---3-3-3-3-5-5---0-0-7-0-3-3-3-3-5-5------|

Get this song at:  amazon.com sheetmusicplus.com

Share your thoughts

0 Comments found