Fu Manchu

Fu Manchu - Strolling Astronomer guitar tab

"Strolling Astronomer" by Fu Manchu.

From the Album "The Action is go".

Tabbed by SETCH.

Tuning:-all strings down a full step.

eg(DGCFAD)

Every second playing of Riff 1 is accompanied by a short

solo, and I have tabbed the first solo. The last time it

is played there is a double time feel for the outro solo.

These solos are all played on the same scale, pentatonic

on 12 and 14.

Lick 1. (intro)

d|-------------------------------------------------------|

A|-------------------------------------------------------|

F|----------------------------------------------14b614b6-|

C|-14b16--14b16--14b16-14b16--14b16-14b16--1616----------|

G|-------------------------------------------------------|

D|-------------------------------------------------------|

Riff 1.

d|-------------------------------------------------------|

A|-------------------------------------------------------|

F|-------------------------------------------------------|

C|----------5-----------------------5--------------------|

G|-22-2222--3-5---5--7-7-----22-2222--3-5---5--7-7-------|

D|-00-0000----3-x-3sl5-5-----00-0000----3-x-3sl5-5-------|

Solo 1.

d|-------------------------------------------------------|

A|-------------------------------------------------------|

F|-----------------14b16r14--12h14b16----14--------------|

C|-12h14-14-14-14----------------------------------------|

G|-------------------------------------------------------|

D|-------------------------------------------------------|

d|-------------------------------------------------------|

A|----------------------------------------15b17----------|

F|-----------------14b16r14--12h14b16r14-----------------|

C|-12h14-14-14-14----------------------------------------|

G|-------------------------------------------------------|

D|-------------------------------------------------------|

Riff 2. (verse)

d|-------------------------------------------------------|

A|-------------------------------------------------------|

F|-------------------------------------------------------|

C|-------------------------------------------------------|

G|-2----------------------7--2-------------------------7-|

D|-0----------------------5--0-------------------------5-|

Riff 3.

d|-------------------------------------------------------|

A|-------------------------------------------------------|

F|------------7----7----7---------------7----7-----7-----|

C|------------9b11-9b11-9b11------------9b11-9b11-9b11---|

G|-7--9-9-9-9--------------------------------------------|

D|-5sl7-7-7-7-----------------5sl7-7-7-7-----------------|

d|-------------------------------------------------------|

A|-------------------------------------------------------|

F|------------7----7----7---------------7----12---12-----|

C|------------9b11-9b11-9b11------------9b11-14b11149b11-|

G|-7--9-9-9-9--------------------------------------------|

D|-5sl7-7-7-7-----------------5sl7-7-7-7-----------------|

Riff 4.

d|-------------------------------------------------------|

A|-------------------------------------------------------|

F|-------------------------------------------------------|

C|-------------------------------------------------------|

G|-2--7-9--7-9--2--------------2---5-2-6-2-7----777-7-7--|

D|-0--5-7--5-7--0--------------0---3-0-4-0-5----555-5-5--|

Get this song at:  amazon.com sheetmusicplus.com

Share your thoughts

0 Comments found