Fu Manchu

Fu Manchu - Squash That Fly2 bass tab

Fu Manchu - Squash That Fly

*Drop D Tuning*

G --10-8--------------------

D -------10-8---------------

A ------------10-8-6-3------

D --------------------------

Verse:

G -------------------------------------------------------

D -------------------------------------------------------

A --------------------------------1-1---1-1--3-3----3-3--

D -0-0-0-0-0-0-0-0-0-0-0-0-0-0-0-0---3-3--------5-5------

Chorus:

Low D -0-0-0-0-0-0--3-3-3-3-3-3--0-0-0-0-0-0--3-3-3-5-5-5-

Get this song at:  amazon.com sheetmusicplus.com

Share your thoughts

0 Comments found