Fu Manchu

Fu Manchu - Solid Hex guitar tab

"Solid Hex" by Fu Manchu.

From the Album "In Search of...".

Tabbed by Christian Reindel (creindel@gmx.de)

Tuning:-all strings down a full step.

Verseriff

d|----------------------|

A|----------------------|

F|----------------------|

C|----------------------|

G|-71010-7-7-7-7-7-----|

D|-5-8-8-5-5-5-5-5-----|

Chorusriff

I know ride on time

d|------------------------------------------|

A|------------------------------------------|

F|------------------------------------------|

C|------------------------------------------|

G|-71010-7-7-7-7-7-101010--12-12-12--------|

D|-5-8-8-5-5-5-5-5--8-8-8--10-10-10--------|

Interlude

6x

d|-----------------------------------------------------------|

A|-----------------------------------------------------------|

F|-----------------------------------------------------------|

C|--5^7-7-0-5^7-7-7-5^7-7-7--7-7-7-7--5^7-7-0-5^7-7-7-5-7-2--|

G|----------------------------------------------------3-5-0--|

D|-----------------------------------------------------------|

2x

d|------------------|

A|------------------|

F|------------------|

C|-5-7-2-----7--8---|

G|-3-5-0-----5--6---|

D|------------------|

back to chorusriff

outro with verseriff

That's it.

Get this song at:  amazon.com sheetmusicplus.com

Share your thoughts

0 Comments found