Fu Manchu

Fu Manchu - Snakebellies guitar tab

"Snakebellies" by Fu Manchu.

From the Album "No One Rides for Free".

Tabbed by SETCH.

Tuning:-all strings down a full step.

eg(DGCFAD)

Riff 1. Intro & Main Riff.

d|--------------------------------------------------|

A|--------------------------------------------------|

F|--------------------------------------------------|

C|------7-9----------12-10-------7-9----------------|

G|------5-7-x-x-x-x--12-10-------5-7---------5-7----|

D|-0-0------x-x-x-x---------0-0--------------3-5----|

Riff 2.

d|--------------------------------------------------|

A|--------------------------------------------------| |

F|--------------------------------------------------| |

C|--------------------------------------------------| |

G|-5--7-7-7-7-7-7-7-7--5--7-7-7-7-7-7-7-7-----------| |

D|-3sl5-5-5-5-5-5-5-5--3sl5-5-5-5-5-5-5-5-----------| |

- x2

d|--------------------------------------------------| |

A|--------------------------------------------------| |

F|--------------------------------------------------| |

C|------7-9----------12-10-------7-9----------------| |

G|------5-7-x-x-x-x--12-10-------5-7---------5-7----| |

D|-0-0------x-x-x-x---------0-0--------------3-5----| /

d|--------------------------------------------------|

A|--------------------------------------------------|

F|--------------------------------------------------|

C|-5------------------------------------------------|

G|-3----------------------5-------------------------|

D|------------------------3-------------------------|

Riff 3.

d|--------------------------------------------------|

A|--------------------------------------------------|

F|--------------------------------------------------|

C|------7-9----------------------7-9----------------|

G|------5-7----------------------5-7---------5-7----|

D|-0-0----------------------0-0--------------3-5----|

The rest of the song is mostly lead work...go work it

out yourself.

Get this song at:  amazon.com sheetmusicplus.com

Share your thoughts

0 Comments found