Fu Manchu

Fu Manchu - Sleestak guitar tab

"Sleestak" by Fu Manchu, from the album "Daredevil".

transcribed by ded bob

tuning: D

main riff

-------------------------------------------------

-------------------------------------------------

-------------------------------------------------

---------3------h------------------3-------------

-------------0-3^5-5-------------------0-3-4-5---

-5-3-5-----------------1---5-3-5-----------------

pre-chorus transition

--------------------

--------------------

--------------------

--------------------

-------3-4-5--------

-3-4-5-------3-4-5--

chorus riff x3

---------------------------------|-----------------------------

---------------------------------|-----------------------------

---------------------------------|-----------------------------

-5---7-7---7---------------3-4---|-5---7-7---7----------5------

-3---5-5---5-----3---5-5---1-2---|-3---5-5---5-----3----3------

-----------------1---3-3---------|-----------------1-----------

chorus riff #2

-----------------------------

-----------------------------

-----------------------------

-7---9-9---9-----------------

-5---7-7---7-----------------

-----------------------------

Get this song at:  amazon.com sheetmusicplus.com

Share your thoughts

0 Comments found