Fu Manchu

Fu Manchu - Show And Shine guitar tab

"Show and Shine" by Fu Manchu.

From the Album "No One Rides for Free".

Tabbed by SETCH. Brought to you by stickyhomer.

Tuning:-all strings down a full step.

eg(DGCFAD)

Riff 1. Intro.

There are about for different versions of the little

lick after the chords...this is just one, so figure the

rest out yourself, and swap 'em around a bit.

d|--------------------------------------------------|

A|--------------------------------------------------|

F|----5-5----7--5-7b9-5-------3-5----7--5-7b9-5-----|

C|-7--5-5--5-7----------7--7--5-5--5-7----------7---|

G|-7--3-3--5-5-------------7--3-3--5-5--------------|

D|-5-------3---------------5-------3----------------|

Riff 2. man of the moment...

d|--------------------------------------------------|

A|--------------------------------------------------|

F|--------------------------------------------------|

C|-7-----------------------7------------------------|

G|-7-----------------------7------------------------|

D|-5-----------------------5------------------------|

Riff 3. Bridge

d|--------------------------------------------------|

A|--------------------------------------------------|

F|--------------------------------------------------|

C|----------5-5-3---7--------------5-5-3---7--------|

G|-5--8-8---3-3-1-5-5------5--8-8--3-3-1-5-5--------|

D|-3sl6-6---------3--------3sl6-6--------3----------|

Riff 4. Interlude (hey baby...)

d|--------------------------------------------------|

A|--------------------------------------------------|

F|--------------------------------------------------|

C|--------------------------------------------------|

G|-5--6--7-----------------5--6--7------------------|

D|-3--4--5-----------------3--4--5------------------|

Get this song at:  amazon.com sheetmusicplus.com

Share your thoughts

0 Comments found