Fu Manchu

Fu Manchu - Shine It On guitar tab

"Shine it On" by Fu Manchu.

From the Album "No One Rides for Free".

Tabbed by SETCH. Brought to you by stickyhomer.

Tuning:-all strings down a full step.

eg(DGCFAD)

Riff 1. Intro & Main Riff

d|----------------------------------------------------------|

A|----------------------------------------------------------|

F|----------------------------------------------------------|

C|----7-5----5-7-7-------5-5------7-5----5-7-7-------5-5----|

G|-7------7--3-5-5-5-7-7-3-3-5--7-----7--3-5-5-5-7-7-3-3-5--|

D|-5---------------3-5-5-----3--5--------------3-5-5-----3--|

Riff 2. Verse

d|----------------------------------------------------------|

A|----------------------------------------------------------|

F|----------------------------------------------------------|

C|----7-5----7-5-------------------7-5---7-5----------------|

G|-7------7------7--------------7------7-----7--------------|

D|-5----------------------------5---------------------------|

d|----------------------------------------------------------|

A|----------------------------------------------------------|

F|-------------------------------------------------------5--|

C|----7-5----7-5-------------------7-5---7-5-------------5--|

G|-7------7------7--------------7------7-----7-----------3--|

D|-5----------------------------5---------------------------|

Riff 3. Chorus

d|----------------------------------------------------------|

A|----------------------------------------------------------|

F|----------------------------------------------------------|

C|-------------5-5-5-5-5-5-3----------------5-5-5--5-5-5----|

G|-7-7-7-7-5-7-3-3-3-3-3-3-1----7-7-7-7-5-7-3-3-3--3-3-3----|

D|-5-5-5-5-3-5------------------5-5-5-5-3-5-----------------|

Riff 4. Bridge

d|----------------------------------------------------------|

A|----------------------------------------------------------|

F|----------------------------------------------------------|

C|-----------------5-5-5------------------------5-5---------|

G|-7-7-7---7-7-7---3-3-3--------7-7-7---7-7-7---3-3-5-------|

D|-5-5-5---5-5-5----------------5-5-5---5-5-5-------3-------|

Get this song at:  amazon.com sheetmusicplus.com

Share your thoughts

0 Comments found