Fu Manchu

Fu Manchu - Shift Kicker guitar tab

"Shift Kicker" by Fu Manchu.

From the Album "Eatin' Dust".

Tabbed by SETCH. Brought to you by stickyhomer.

Tuning:-all strings down a full step.

eg(DGCFAD)

I love this song - it sounds really great if you play it

sloppy and crap....

Riff 1. (intro & Chorus)

d|--------------------------------------------------|

A|--------------------------------------------------|

F|--------------------------------------------------|

C|-----------------5------------------------5-------|

G|-5h7-7-7-7-7-5h7---7-7-7--5h7-7-7-7-7-5h7---7-7-7-|

D|-0-0-0-0-0-0-0-0---5-5-5--0-0-0-0-0-0-0-0---5-5-5-|

Riff 2. (verse)

d|-----------------------------------------------------|

A|----------------8------8-------8---------------------|

F|----------------10b(12)-10b(12)10b(12)10b(12)-8-10-8-|

C|-5--7-8----------------------------------------------|

G|-3--5-6-8-8--10--------------------------------------|

D|--------6-6--8---------------------------------------|

d|-----------------------------------------------------|

A|----------------8------8-------8---------------------|

F|----------------10b(12)-10b(12)10b(12)10b(12)-8-10-8-|

C|-5--7-8----------------------------------------------|

G|-3--5-6-8-8--10--------------------------------------|

D|--------6-6--8---------------------------------------|

d|-----------------------------------------------------|

A|-7-------7-------7-------7-----7-----7-----7---------|

F|-9b(11)--9b(11)--9b(11)--9b(11)9b(11)9b(11)9b(11)----|

C|-----------------------------------------------------|

G|-----------------------------------------------------|

D|-----------------------------------------------------|

Riff 3. (interlude part 1.)

d|--------------------------------------------------|

A|--------------------------------------------------|

F|--------------------------------------------------|

C|--------------------------------------------------|

G|-----7-----7---7-7-----------7-----7---7-7--------|

D|-5-5---5-5---5-----3-4-5-5-5---5-5---5-----3-4-5--|

Riff 4. (interlude part 2.)

d|--------------------------------------------------|

A|--------------------------------------------------|

F|--------------------------------------------------|

C|--------------------------------------------------|

G|-5-6-7--------------------5-6-7-------------------|

D|-3-4-5--------------------3-4-5-------------------|

Get this song at:  amazon.com sheetmusicplus.com

Share your thoughts

0 Comments found