Fu Manchu

Fu Manchu - Separate Kingdom guitar tab

separate kingdom

by Fu Manchu

from the new album 'california crossing'

transcribed by Christian Reindel (creindel@gmx.de)

any questions or corrections - e-mail me

TUNE DOWN ONE WHOLE STEP

Main riff

only the 1.time

D:|---------|--------------------------------------------------|

A:|---------|--------------------------------------------------|

F:|---------|--------------------------------------------------|

C:|---------|-9---7------------------9---7---12-12-12----12--9-|

G:|---------|-7---5---7---5-5--2-----7---5---10-10-10----10--7-|

D:|---12---|---------5---3-3--0-------------------------------|

Pre-chorus

3 times than this

D:|--------------------------|------------------------------------|

A:|--------------------------|------------------------------------|

F:|--------------------------|------------------------------------|

C:|--9--9--9-9-9-------------|-9--9---9-9-9-9---------------------|

G:|--7--7--7-7-7--5---5-5-5--|-7--7---7-7-7-7--7-7--7-7-7-7-------|

D:|--7--7--7-7-7--3---3-3-3--|-7--7---7-7-7-7--5-5--5-5-5-5-------|

Chorus

D:|---------------------------------------------------------------------|

A:|---------------------------------------------------------------------|

F:|---------------------------------------------------------------------|

C:|-----------------------------------------------------5-5--5--5-5-5-5-|

G:|--2-2--2---2-2-2-2--5--5-5--5-5-5-5--7-7--7--7-7-7-7-3-3--3--3-3-3-3-|

D:|--0-0--0---0-0-0-0--3--3-3--3-3-3-3--5-5--5--5-5-5-5-----------------|

Rhythm under guitarsolo

3 times than this

D:|--------------------------|----------------------|

A:|--------------------------|----------------------|

F:|--------------------------|----------------------|

C:|--9--9--9-9-9-------------|----------------------|

G:|--7--7--7-7-7--5---5-5-5--|--7-7--7-7-7-7-5------|

D:|--7--7--7-7-7--3---3-3-3--|- 5-5--5-5-5-5-3------|

end.

Get this song at:  amazon.com sheetmusicplus.com

Share your thoughts

0 Comments found