Fu Manchu

Fu Manchu - Saturn Iii guitar tab

song: saturn III

band: fu manchu

tabbed by: absolutelyfibulous@hotmail.com

i tabbed this off the go for it live cd

i havent heard the studio version so if its off...whoops?

dgcfad

riff 1

------

1]-------------------------------------------------

2]-------------------------------------------------

3]-------------------------------------------------

4]-------------------------------------------------

5]-2-2-7-5-------------5----2-2-7-5----------------

6]-0-0-----7-6-5-6-7-0---5--0-0-----7-6-5-6-7-0-3--

riff 2 (only do the last pull-off every other time thru)

------

1]-------------------------

2]-------------------------

3]-------------------------

4]---------------------5p0-

5]-5h7-7-7-5h7-7-7---------

6]-----------------3h5-----

1]-----------------------------

2]-----------------------------

3]-----------------------------

4]-7/(9)-9-9-7/(9)-9-9-----5p0-

5]-5/(7)-7-7-5/(7)-7-7---------

6]---------------------3h5-----

riff 3

------

1]------------------------

2]------------------------

3]------------------------

4]-5/(7)-5----------------

5]---------7-6-5-6-7----7-

6]-------------------7--5-

riff 4

------

1]-------------------

2]-------------------

3]-------------------

4]-2-----7-----2-----

5]-2-----5-----2-----

6]-0-----5-----0-----

* use whammy bar

riff 5

------

1]-------------------------------------

2]-------------------------------------

3]---------------------5---------------

4]-5h7-7-7-5h7-7-7-------5h7-7-7-5h7-7-

5]-----------------3h5-----------------

6]-------------------------------------

i think everything is there except random fills and shtuff you just gotta put it all together

merry christmas

Get this song at:  amazon.com sheetmusicplus.com

Share your thoughts

0 Comments found