Fu Manchu

Fu Manchu - Saturn 3 guitar tab

"Saturn III" by Fu Manchu.

From the Album "The Action is go".

Tabbed by SETCH.

Tuning:-all strings down a full step.

eg(DGCFAD)

Riff 1. (intro)

d|------------------------------------------------------------|

A|------------------------------------------------------------|

F|------------------------------------------------------------|

C|-------------------------7----------------------------------|

G|-2--2--7-5---------------5-7-----------7-5--------------5---|

D|-0--0------7-6-5-6-5-(0)---5-----0--0------7-6-5-6-7-0--3---|

Riff 2. (verse)

d|------------------------------------------------------------|

A|------------------------------------------------------------|

F|------------------------------------------------------------|

C|---------------------5----------------------------5---------|

G|-2--7-7-5h7-7-7--------5----5h7-7-7-5h7-7-7---------5-------|

D|-0--------------3sl5-------------------------3sl5-----------|

Riff 3. (chorus)

d|------------------------------------------------------------|

A|------------------------------------------------------------|

F|------------------------------------------------------------|

C|-7--5---------------------------7--5------------------------|

G|-------7-6-5-6-7--9----7--------------7-6-5-6-7--9----7-----|

D|------------------7----5-------------------------7----5-----|

Riff 4 (on bass)

F|------------------------------------------------------------|

C|-----------------------5-------------------------------5----|

G|-5h7-7-7-5h7-7-7-----------------5h7-7-7-5h7-7-7------------|

D|------------------3sl5----------------------------3sl5------|

I accompany the bass riff with some sweep picks of a 12th-fret

barred E major......then go into the solo on the 12th and 14th

fret pentatonic scale.

After the solo there is variation on riff 2, basically it gets

moved up one string, so I didn't bother tabbing it.

Get this song at:  amazon.com sheetmusicplus.com

Share your thoughts

0 Comments found