Fu Manchu

Fu Manchu - Regal Begal guitar tab

From: "oswald homme"

Subject: f/fu_manchu/regal_begal.tab

Date: Mon, 08 Jun 1998 13:21:08 PDT

Fu Manchu - "Regal Begal

Taken from the album "In Search Of"/Mammoth Records 1996

Music: Fu Manchu / Vocals: Scott Hill

TAB by: "The Riffmonger" otto75yeah@hotmail.com

All Guitars: Heavy Fuzz!!!

1.)

RIFF 1 - play 3 times End RIFF 1

e :-------------------------------------------------------------:

B :-------------------------------------------------------------:

G :--------------------------------6--8--6-----6--8b+r--6-------:

D :--------------------------------------------------------8---:

A :--8----6----8--11--11--8-------------------------------------:

E :--6----4----6---9---9--6-------------------------------------:

2.)

RIFF 2 - play 2 times End RIFF 2

e :-----:-------------------------------------------------------:

B :-----:-------------------------------------------------------:

G :-----:-------------------------------------------------------:

D :-----:-----------------------6--------------------------8----:

A :-5-6-:-8-8-8-8-8-8-8-8-8-8-8-4----8-8-8-8-8-8-8-8-8-8-8-6----:

E :-3-4-:-6-6-6-6-6-6-6-6-6-6-6------6-6-6-6-6-6-6-6-6-6-6------:

p.m.-----------------: p.m.-----------------:

3.)

RIFF 1 - play 1 time

4.)

RIFF 1b End RIFF 1b

e :-------------------------------------------------------------:

B :-------------------------------------------------------------:

G :--------------------------------8b-8b-8b----8p6--------------:

D :-------------------------------------------------8---6--8---:

A :--8----6----8--11--11--8-------------------------------------:

E :--6----4----6---9---9--6-------------------------------------:

5.)

RIFF 1c End RIFF 1c

e :-------------------------------------------------------------:

B :-------------------------------------------------------------:

G :-------------------------------6-8b-8b--8b-8b----8b+r-6------:

D :--------------------------------------------------------8---:

A :--8----6----8--11--11--8-------------------------------------:

E :--6----4----6---9---9--6-------------------------------------:

6.)

RIFF 2 - play 2 times

7.)

Bass part - Gtr. taced

8.)

LEAD Gtr. End LEAD Gtr.

e :-------------------------------------------------------------:

B :---8b+r-8-6------8b+r-6-8b+r-8--6----------------6--8--8b----:

G :-----------------------------------8-------6--8--------------:

D :-------------------------------------------------------------:

A :-------------------------------------------------------------:

E :-------------------------------------------------------------:

9.)

BRIDGE - play 4 times End BRIDGE

2x with slight p.m. + 2x without

e :-------------------------------------------------------------:

B :-------------------------------------------------------------:

G :-------------------------------------------------------------:

D :-------------------------------------------------------------:

A :---------------------------------------------------6-7^^^----:

E :-6-6-6-6-9-6-6-9-6-9-6-4^^^----6-6-6-6-9-6-6-9-6-9-----------:

10.)

RHY.Gtr. - play 2 times End RHY.Gtr.

e :-------------------------------------------------------------:

B :-------------------------------------------------------------:

G :-------------------------------------------------------8-9^^-:

D :-8-8-8-8-11-8-8-11-8-11-8-6^^^--8-8-8-8-11-8-8-11-8-11-------:

A :-------------------------------------------------------------:

E :-------------------------------------------------------------:

: :

:LEAD Gtr. - play 2 times End LEAD Gtr.:

: :

e :-------------------------------------------------------------:

B :-------------------------------------------------------------:

G :-8b--8b--8b--8b--ecc.-improvise------------------------------:

D :-------------------------------------------------------------:

A :-------------------------------------------------------------:

E :-------------------------------------------------------------:

11.)

RIFF 1

RIFF 1b

RIFF 1c

Can?t understand the lyrics ?cause my english sucks (I?m german)

And now...

Kick out the jams MF!!

Get this song at:  amazon.com sheetmusicplus.com

Share your thoughts

0 Comments found