Fu Manchu

Fu Manchu - Redline guitar tab

"Redline" by Fu Manchu, from the album "In Search of..."

Tabbed by SETCH.

Tuning:-all strings down a full step.

eg(DGCFAD)

Riff 1. (intro & verse)

d|--------------------------------------|

A|--------------------------------------|

F|--------------------------------------|

C|--------------------10--10-8----------|

G|-10-10-10-10-8-10------------10-9-8---|

D|-8--8--8--8--6-8----------------------|

Riff 2. (chorus)

d|--------------------------------------|

A|-----------------improvise-on-8-------|

F|-----------------and-10th-fret--------|

C|-8------10-------pentatonic-scale-----|

G|-6------8-----------------------------|

D|--------------------------------------|

Riff 3.

d|--------------------------------------|

A|--------------------------------------|

F|--------------------------------------|

C|-10--10-10-8h10-8h10-10-10-8h10-8h10--|

G|--------------------------------------|

D|--------------------------------------|

Then switch to......

d|--------------------------------------|

A|--------------------------------------|

F|--------------------------------------|

C|--------------------------------------|

G|--------------------------------------|

D|-8---8--8--6h8--6h8--8--8--6h8--6h8---|

Thats all folks!

__ _ __ __

/_ /_ / / /_/

__/ /_ / /_ / /.........

Get this song at:  amazon.com sheetmusicplus.com

Share your thoughts

0 Comments found