Fu Manchu

Fu Manchu - Pidgeon Toe guitar tab

"Pidgeon Toe" by Fu Manchu, from the album "Eatin' Dust".

transcribed by ded bob

tuning: D

(song opens with a D5 chord held out)

verse riff

---------------------------------------------------------------

---------------------------------------------------------------

---------------------------------------------------------------

---------------------------5--5--------------------------------

-7---7-0-7---7-0-7---7-0-7------7---7-0-7---7-0-7---7-0-7-5--5-

---------------------------------------------------------------

chorus riff

---------------------------------------------------------------

---------------------------------------------------------------

---------------------------7------------------------------7----

-2---2-2-2---2-2-2---2-2-2-5----2---2-2-2---2-2-2---2-2-2-7----

-2---2-2-2---2-2-2---2-2-2------2---2-2-2---2-2-2---2-2-2-5----

-0---0-0-0---0-0-0---0-0-0------0---0-0-0---0-0-0---0-0-0------

fill riff

------------------------------------

------------------------------------

------------------------------------

------5--6--7-------7-5-------------

-5-7---------------------7--5-------

-------------------------------3----

(play D5 chord - hold until feeds back)

(killer bass line here)

post-solo chorus riff

------------------------------------------

------------------------------------------

------------------------------------------

------------------------------h--5^-------

-7---5-----------------------5^7----7-----

---------6-5-3-3-----3---5----------------

Get this song at:  amazon.com sheetmusicplus.com

Share your thoughts

0 Comments found