Fu Manchu

Fu Manchu - Orbiter guitar tab

"Orbiter" by Fu Manchu.

From the Album "Eatin' Dust".

Tabbed by SETCH. Brought to you by stickyhomer.

Tuning:-all strings down a full step.

eg(DGCFAD)

Riff 1a. (verse guitar 1.)

d|------------------------------------------|

A|------------------------------------------|

F|------------------------------------------|

C|-7----------------------------------------|

G|-5--7--9----------------------------------|

D|----5--7--slide-down-neck-----------------|

Riff 1b. (verse guitar 2.)

d|------------------------------------------|

A|------------------------------------------|

F|------------------------------------------|

C|------------------------------------------|

G|-----------5-----------7-7-5------5-------|

D|-------7-7---7-5-7-7-5--------7-7---7-5-7-|

Riff 2. (Chorus)

d|------------------------------------------|

A|------------------------------------------|

F|------------------7~--------------------7~|

C|------------7h9-9----------------7h9-9----|

G|-7--9-9-9-9-----------7--9-9-9-9----------|

D|-5sl7-7-7-7-----------5sl7-7-7-7----------|

d|----------------------------------------------|

A|----------------------------------------------|

F|------------------7~-------------9b(11)r9-7-7-|

C|------------7h9-9-----------------------------|

G|-7--9-9-9-9-----------7--9-9-9-9--------------|

D|-5sl7-7-7-7-----------5sl7-7-7-7--------------|

Riff 3. (interlude)

d|------------------------------------------|

A|------------------------------------------|

F|------------------------------------------|

C|------------------------------------------|

G|------5----------5----------5-------------|

D|-7777---7-5-7777---7-5-7777---7-5-7 slide-|

Get this song at:  amazon.com sheetmusicplus.com

Share your thoughts

0 Comments found