Fu Manchu

Fu Manchu - Ojo Rojo guitar tab

"Ojo Rojo" by Fu Manchu.

From the Album "No One Rides for Free".

Tabbed by SETCH. Brought to you by stickyhomer.

Tuning:-all strings down a full step.

eg(DGCFAD)

Between most riffs, the band play:-

d|--------------------|

A|--------------------|

F|--------------------|

C|-------------3------|

G|-5-----------1------|

D|-3-3-3-3-3-3--------|

pm . . . . .

Riff 1. Intro

d|----------------------------------------------------------|

A|----------------------------------------------------------|

F|----------------------------------------------------------|

C|----------------------------------3--5-5-5-5--------------|

G|-3--5-5-5-5-5--3--5-5-5--3--5-5-5-1sl3-3-3-3--------1-----|

D|-1sl3-3-3-3-3--1sl3-3-3--1sl3-3-3-------------1-1-3---3-1-|

Riff 2. Verse

d|----------------------------------------------------------|

A|----------------------------------------------------------|

F|----------------------------------------------------------|

C|-5-------------------------8------------------------------|

G|-5-------------------------8------------------------------|

D|-3-------------------------6------------------------------|

she wanted nothing... and i delivered...

d|----------------------------------------------------------|

A|----------------------------------------------------------|

F|----------------------------------------------------------|

C|------>>>-sl9-9b10-------------->>>-sl9-9b10--------------|

G|-3-5-----------------------3-5----------------------------|

D|-1-3-----------------------1-3----------------------------|

Riff 3. Interlude.

d|----------------------------------------------------------|

A|----------------------------------------------------------|

F|------------5-5-3--------------------5-5-3----------------|

C|------------------5-4-3--------------------5-4-3----------|

G|-3--5-5-5-5---------------3--5-5-5-5----------------------|

D|-1sl3-3-3-3---------------1sl3-3-3-3----------------------|

Riff 4. Outro

d|----------------------------------------------------------|

A|----------------------------------------------------------|

F|----------------------------------------------------------|

C|---------------------------------------------7-5-3-5-5----|

G|-5-5-5-5-5-5-5-5-5-5-5-5-5-5-5-5-------------5-3-1-3-3----|

D|-3-3-3-3-3-3-3-3-3-3-3-3-3-3-3-3-and-on-and-on------------|

pm . . . . . . . . . . . . . . .

Riff 5. Outro (cont)

d|----------------------------------------------------------|

A|----------------------------------------------------------|

F|----------------------------------------------------------|

C|-----------------7-5-3-5-5--------------------------------|

G|-5-5-5-5-5-5-5-5-5-3-1-3-3---5-5-5-5-5-5-5-5-5-3-1-3-3----|

D|-3-3-3-3-3-3-3-3-------------3-3-3-3-3-3-3-3--------------|

pm . . . . . . . . . . . . . . .

Get this song at:  amazon.com sheetmusicplus.com

Share your thoughts

0 Comments found