Fu Manchu

Fu Manchu - Nothing Done guitar tab

nothing done

by Fu Manchu

from the album 'the action is go'

transcribed by Christian Reindel (creindel@gmx.de)

any questions or corrections-e-mail me

tune down one whole step

Intro

d|----------------------|

A|----------------------|

F|----------------------|

C|--6---9-8--9-8-9------|

G|--4---7-6--7-6-7------|

D|----------------------|

Verse (2 times)

d|---------------------------------------------------------------------|

A|------------------------------------------------------5~--------6~---|

F|-----------------------------------------------3-3-3-----4-4-4-------|

C|-6-6-6-6-6-6-6-6-6-6-6-6-6-6-9-9-9-8-8-8-8-8-8--------9--------10----|

G|-4-4-4-4-4-4-4-4-4-4-4-4-4-4-7-7-7-6-6-6-6-6-6-8-8-8--7--9-9-9--8----|

D|-----------------------------------------------6-6-6-----7-7-7-------|

Chorus ( 2 times)

d|--------------------------------------------------------|

A|--------------------------------------------------------|

F|--------------------------------------------------------|

C|-5-5-5-5-5-5-6-6-3--------------------------------------|

G|-3-3-3-3-3-3-4-4-1--------------------------------------|

D|--------------------------------------------------------|

you know what?

d|--------------------------------------------------------|

A|--------------------------------------------------------|

F|--------------------------------------------------------|

C|--------------------------------------------------------|

G|-8---7----5---------------------------------------------|

D|-6---5----3---------------------------------------------|

back to verse

than chorus - very short...

Get this song at:  amazon.com sheetmusicplus.com

Share your thoughts

0 Comments found