Fu Manchu

Fu Manchu - Mongoose guitar tab

"Mongoose" by Fu Manchu.

From the Album "Eatin' Dust".

Tabbed by SETCH. Brought to you by stickyhomer.

Tuning:-all strings down a full step.

eg(DGCFAD)

Riff 1. (intro & Chorus)

d|-----------------------------------------------|

A|-----------------------------------------------|

F|-----------------------------------------------|

C|---------------------5-------------------------|

G|---------5-7---5-7-----7-5---------------------|

D|-0-0-0-0-----0-----0-------7-5-----------------|

Riff 2. (Interlude kinda thingy near the beginning)

d|-----------------------------------------------|

A|-----------------------------------------------|

F|-----------------------------------------------|

C|------------------------7--7-7-----------------|

G|-7--7-7--5---5-5-5-5----5--5-5--7---7-7-7-7----|

D|-5--5-5--3---3-3-3-3------------5---5-5-5-5----|

Riff 3. (Chorus)

d|-----------------------------------------------|

A|-----------------------------------------------|

F|-----------------------------------------------|

C|---------------7-------5-------7---------------| x3

G|-2-2-2-2-2-2-2-5-7-7-7-3-5-5-5-5-7-7-7---------|

D|-0-0-0-0-0-0-0---5-5-5---3-3-3---5-5-5---------|

d|-----------------------------------------------|

A|-----------------------------------------------|

F|-----------------------------------------------|

C|---------------7-------10------5---------------|

G|-2-2-2-2-2-2-2-5-7-7-7-8-1010103-5-5-5---------|

D|-0-0-0-0-0-0-0---5-5-5---8-8-8---3-3-3---------|

Get this song at:  amazon.com sheetmusicplus.com

Share your thoughts

0 Comments found