Fu Manchu

Fu Manchu - Module Overload guitar tab

"Module Overload" by Fu Manchu.

From the Albums "Eatin' Dust" and "The Action is Go".

Tabbed by SETCH. Brought to you by stickyhomer.

Tuning:-all strings down a full step.

eg(DGCFAD)

Riff 1. (intro & Chorus)

d|-------------------------------------------------------|

A|-------------------------------------------------------|

F|-------------------------------------------------------|

C|-2-2-5-2-3-7-7-7-2-7-8-7-8--2-2-5-2-3-7-7-7-2-7-8-7-8--|

G|-0-0-3-0-3-5-5-5-0-5-6-5-6--0-0-3-0-3-5-5-5-0-5-6-5-6--|

D|-------------------------------------------------------|

Riff 2. (Verse)

d|-------------------------------------------------------|

A|-------------------------------------------------------|

F|-------------------------------------------------------|

C|-------------------5-7-7---------------------5-7-7-----|

G|-5-7-7-7-7-7-5-7-7-3-5-5---5-7-7-7-7-7-5-7-7-3-5-5-----|

D|-3-5-5-5-5-5-3-5-5---------3-5-5-5-5-5-3-5-5-----------|

d|-------------------------------------------------------|

A|-------------------------------------------------------|

F|-------------------------------------------------------|

C|-------------------5-7-7------------------------5------|

G|-5-7-7-7-7-7-5-7-7-3-5-5---5-7-7-7-7-7-5----7---3--5---|

D|-3-5-5-5-5-5-3-5-5---------3-5-5-5-5-5-3-sl-5------3---|

Riff 3. (interlude)

This part is different depending on whether you have Eatin'

Dust or The Action is go (euro edition), but the basic riffs

are the same. After the chorus there is a trippy effect thing

then this riff.

d|-------------------------------------------------------|

A|-------------------------------------------------------|

F|-------------------------------------------------------|

C|---------------5-5-5-5-6-7-------------5-5-5-5-6-7-----|

G|-7--7----------3-3-3-3-4-5--7--7-------3-3-3-3-4-5-----|

D|-5--5-----------------------5--5-----------------------|

The next riff is almost the same, just hit the G chord a few

more times, then lay on some kinda solo....

Get this song at:  amazon.com sheetmusicplus.com

Share your thoughts

0 Comments found