Fu Manchu

Fu Manchu - Missing Link guitar tab

Band: Fu Manchu

Album: In Search Of...

Song: Missing Link

Tabbed By: Jesus

This song is lotsa fun

Drop-D Tuning

/ =Slide

(0:00)

Riff 1

--------------------------------

--------------------------------

--------------------------------

-5-5/7-7-7-7-7-7-7--------------

-3-3/5-5-5-5-5-5-5-7-6-5--1-3-1-

-------------------7-6-5--1-3-1-

--------------------------------|

--------------------------------|

--------------------------------|

-5-5/7-7-7-7-7-7-7--------------| x4

-3-3/5-5-5-5-5-5-5-7-6-5---3----|

-------------------7-6-5---3----|

(0:22)

Riff 2

--------------------------------

--------------------------------

--------------------------------

-5-5/7-7-7-7-7-7--7-7-7--7-7-7--

-3-3/5-5-5-5-5-5--5-5-5--5-5-5--

--------------------------------

--------------------------------

--------------------------------

--------------------------------

-5-5/7-7-7-7-7-7---10-----------

-3-3/5-5-5-5-5-5---8------------

--------------------------------

--------------------------------

--------------------------------

--------------------------------

-5-5/7-7-7-7-7-7--7-7-7--7-7-7--

-3-3/5-5-5-5-5-5--5-5-5--5-5-5--

--------------------------------

--------------------------------|

--------------------------------|

--------------------------------|

-5-5/7-7-7-7-7-7---12--10-------|x2

-3-3/5-5-5-5-5-5---10--8--------|

--------------------------------|

(0:51)

Riff 1 x2

(1:05)

Riff 3 x3

------------------------------------|

------------------------------------|

-------------------7-7-7-7-7-7-7--5-|

-------------------5-5-5-5-5-5-5--3-|

-7-7-7-7-7-7-7--5-------------------|

-7-7-7-7-7-7-7--5-------------------|

(1:12)

Riff 4 x1

--------------------------------|

--------------------------------|

--------------------------------|

--------------------------------|

-7-7-7-7-7-7-7--8-9-10-11-------|

-7-7-7-7-7-7-7--8-9-10-11-------|

(1:19)

Riff 1 x2

(1:32)

Riff 2 x2

(2:02)

Riff 1 x2

(2:16)

Riff 3 x3

(2:26)

Riff 4 x1

(2:29)

Riff 1 x6

(3:17)

Riff 5

-----------|

-----------|

-----------|

--5/7------|

--/-5------|

-----------|

Thats it Rock On!!

any corections or questions or allround comments

Jesus_769@Yahoo.com

Get this song at:  amazon.com sheetmusicplus.com

Share your thoughts

0 Comments found