Fu Manchu

Fu Manchu - Mega-bumpers guitar tab

"Mega-Bumpers" by Fu Manchu.

From the Album "No One Rides for Free".

Tabbed by SETCH. Brought to you by stickyhomer.

Tuning:-all strings down a full step.

eg(DGCFAD)

Riff.1 Intro & main riff

(bass plays this for verse)

d|--------------------------------------------|

A|--------------------------------------------|

F|--------------------------------------------|

C|-7------5-7--7-5----7------5-7-5------------|

G|-7--5-7---------7---7--5-7-------7-6-5------|

D|-5------------------5-----------------------|

Riff.2 Chorus

d|--------------------------------------------|

A|--------------------------------------------|

F|--------------------------------------------|

C|-----------5-6-7--------------5-7-7-7-------|

G|-5--7-7-7--3-4-5----5--7-7-7--3-5-5-5-5-----|

D|-3sl5-5-5-----------3sl5-5-5----------3-----|

Riff.3 Interlude.

d|---------------------------------------------|

A|---------------------------------------------|

F|---------------------------------------------|

C|-------------------------------------3-3-3-3-|

G|---------3-4-5-5-5-5-5---------3-4-5---------|

D|-0-3-4-5---------------0-3-4-5---------------|

Riff.4 Interlude second guitar.

d|---------------------------------------------|

A|---------------------------------------------|

F|-------------------------------------5-5-555-|

C|---------5-6-7-7-7-777---------5-6-7-3-3-333-|

G|-2-5-6-7-3-4-5-5-5-555-2-5-6-7-3-4-5---------|

D|-0-3-4-5---------------0-3-4-5---------------|

The next part of the song is led by bass and drums,

with the guitar playing a clean single strum of this

chord from time to time.

d|-5-|

A|-5-|

F|-6-|

C|-7-|

G|-7-|

D|-5-|

Get this song at:  amazon.com sheetmusicplus.com

Share your thoughts

0 Comments found