Fu Manchu

Fu Manchu - Lesson Bass guitar tab

-------------------------------------------------------------------------------

Lesson - Fu Manchu

-------------------------------------------------------------------------------

Tabbed By : adrenalynn

e-mail: webmaster at tabs-database.com.com

Tuning: DGCF

Riff 1:

3x

F|-----------------------------------------------|

C|-----------------------------------------------|

G|-1h3333-3--------------------------------------|

D|-----------1h2-1h3-----------------------------|

1x

F|-----------------------------------------------|

C|-----------------------------------------------|

G|-1h3333-3--------------------------------------|

D|-----------1h2-1h3--1h2-1h3--------------------|

Riff 2:

2x

F|-------------------------------------------------0-1---------------------|

C|-----1------1-----1------------1------1-----1----------------------------|

G|--313-313-1----313-313------313-313-1----313-313-------------------------|

D|-----------------------3-4-----------------------------------------------|

1x

F|-------------------------------------------------------------------------|

C|-----1------1-----1------------------------------------------------------|

G|--313-313-1----313-313---------------------------------------------------|

D|-----------------------3-4-----------------------------------------------|

Riff 1:

3x

F|-----------------------------------------------|

C|-----------------------------------------------|

G|-1h3333-3--------------------------------------|

D|-----------1h2-1h3-----------------------------|

1x

F|-----------------------------------------------|

C|-----------------------------------------------|

G|-1h3333-3--------------------------------------|

D|-----------1h2-1h3--1h2-1h3--------------------|

Riff 2:

2x

F|-------------------------------------------------------------------------|

C|-----1------1-----1------------1------1-----1----------------------------|

G|--313-313-1----313-313------313-313-1----313-313-------------------------|

D|-----------------------3-4-----------------------3-4---------------------|

1x

F|-------------------------------------------------------------------------|

C|-----1------1-----1------------------------------------------------------|

G|--313-313-1----313-313---------------------------------------------------|

D|-----------------------3-4-----------------------------------------------|

Riff 1:

8x

F|-----------------------------------------------|

C|-----------------------------------------------|

G|-1h3333-3--------------------------------------|

D|-----------1h2-1h3-----------------------------|

1x

F|-----------------------------------------------|

C|-----------------------------------------------|

G|-----------------------------------------------|

D|-1h2-1h3--1h2-1h3--1h22-1h33-------------------|

Riff 3:

1x

F|------------------------------------------------------------------|

C|------------------------------------------------------------------|

G|--3333333333333333--------------------------------33333333--------|

D|------------------44444444444444441111111111111111--------1h2-1h3-|

1x

F|---------------------------------------------------------------------|

C|---------------------------------------------------------------------|

G|--3333333333333333--------------------------------33333333---------3-|

D|------------------44444444444444443333333333333333--------1h2-1h3-1--|

1x

F|-----------------------------------------------|

C|-----------------------------------------------|

G|----------3-----------------------------3------|

D|-1h2-1h3-1---1h2-1h3-1h2-1h3-1h22-1h33-1-------|

Added by tabs-database.com and our distinguished partners

Get this song at:  amazon.com sheetmusicplus.com

Share your thoughts

0 Comments found