Fu Manchu

Fu Manchu - Laser Blast guitar tab

"Laser Bl'ast" by Fu Manchu, from the album "The Action is Go".

Tabbed by SETCH.

Tuning:-all strings down a full step.

eg(DGCFAD)

This song is very simple. It is just a collection of

little licks played over a one note bass part. I have

tabbed most of the licks but not all, so improvise...

it's more fun.

Riff 1. (on bass)

F|-------------------------------------------------|

C|-------------------------------------------------|

G|-------------------------------------------------|

D|-00----------00----------00----------00----------|

Lick 1.

d|-------------------------------------------------|

A|-------------------------------------------------|

F|-------------------------------------------------|

C|-----------5---------5-------------5-------------|

G|-5h7--5h7----7--5h7----7---5h7-5h7---7------5h7--|

D|---------------------------------------5h7-------|

Lick 2.

d|-------------------------------------------------|

A|-------------------------------------------------|

F|-------------------------------------------------|

C|-5h6h7--------5-------------5h6h7---------5------|

G|----------5h7---7---------------------5h7----7---|

D|-------------------------------------------------|

Lick 3a.

d|-10----------------------------------------------|

A|-10b12---8p5-------------------------------------|

F|--------------------7-------------------9~~~~----|

C|---------------7h9------9-7------9p7 9-----------|

G|-----------------------------10------------------|

D|-------------------------------------------------|

Lick 3b.

d|-10----------------------------------------------|

A|-10b12---8p5-------------10b11-10b11-10p8--10----|

F|--------------------7-9--------------------------|

C|---------------7h9-------------------------------|

G|-------------------------------------------------|

D|-------------------------------------------------|

Thats all folks!

__ _ __ __

/_ /_ / / /_/

__/ /_ / /_ / /.........

Get this song at:  amazon.com sheetmusicplus.com

Share your thoughts

0 Comments found