Fu Manchu

Fu Manchu - Jailbreak guitar tab

fu manchu

song: jailbreak

transcribed by Rudy Guzman

guzman_84@hotmail.com

tune 2 steps down

fdbk

Eb|----------------------------------------|

Bb|----------------------------------------|

F#|-2-----(2)------(2)---------------------|

C#|-2-----(2)------(2)---------------------|

G#|-0-----(0)------(0)---------------------|

C#|----------------------------------------|

gt1 repeat

Eb|--------------------------------|

Bb|--------------------------------|

F#|-2--2---------------------------|

C#|-2--2---2--2--4--4--------------|

G#|-0--0---2--2--4--4--------------|

C#|--------0--0--2--2---0--0--2--0-|

gt2 *before verse starts*

Eb|----------------------------------------|

Bb|----------------------------------------|

F#|---4bf--2bf~~---------------------------|

C#|---------------4--4b~~~-----------------|

G#|----------------------------------------|

C#|----------------------------------------|

verse *repeat*

Eb|--------------------------------|

Bb|--------------------------------|

F#|-2--2---------------------------|

C#|-2--2---2--2--4--4--------------|

G#|-0--0---2--2--4--4--------------|

C#|--------0--0--2--2---0--0--2--0-|

0:53 secs

Eb|--------------------|

Bb|--------------------|

F#|-2--2---------------|

C#|-2--2---2--2--4--4--|

G#|-0--0---2--2--4--4--|

C#|--------0--0--2--2--|

chorus

tonight is going to be a jailbreak...

gt1 repeat

Eb|------------------------------|

Bb|------------------------------|

F#|-4--4-4--4-4-4----------------|

C#|-4--4-4--4-4-4--2--2-2--2-2-2-|

G#|-2--2-2--2-2-2--2--2-2--2-2-2-|

C#|----------------0--0-0--0-0-0-|

gt2 repeat

Eb|-------------------------------------|

Bb|-------------------------------------|

F#|-/11--11-11--11-11-11--9--9-9--9-9-9-|

C#|-------------------------------------|

G#|-------------------------------------|

C#|-------------------------------------|

end chorus

gt1

Eb|------------------|

Bb|------------------|

F#|------------------|

C#|------------------|

G#|----4-7---7-------|

C#|--5-----4----2~~--|

gt2

Eb|----------------------|

Bb|----------------------|

F#|-------9-----9--------|

C#|-9/11-----9-----------|

G#|----------------9~~~--|

C#|----------------------|

gt1 repeat

Eb|--------------------------------|

Bb|--------------------------------|

F#|-2--2---------------------------|

C#|-2--2---2--2--4--4--------------|

G#|-0--0---2--2--4--4--------------|

C#|--------0--0--2--2---0--0--2--0-|

gt2 *before verse*

Eb|---------------------|

Bb|---------------------|

F#|-------------2-------|

C#|------2-4-2----4~~~--|

G#|--2-4----------------|

C#|---------------------|

verse *repeat*

Eb|--------------------------------|

Bb|--------------------------------|

F#|-2--2---------------------------|

C#|-2--2---2--2--4--4--------------|

G#|-0--0---2--2--4--4--------------|

C#|--------0--0--2--2---0--0--2--0-|

0:53 secs

Eb|--------------------|

Bb|--------------------|

F#|-2--2---------------|

C#|-2--2---2--2--4--4--|

G#|-0--0---2--2--4--4--|

C#|--------0--0--2--2--|

chorus

tonight is going to be a jailbreak...

gt1 repeat

Eb|------------------------------|

Bb|------------------------------|

F#|-4--4-4--4-4-4----------------|

C#|-4--4-4--4-4-4--2--2-2--2-2-2-|

G#|-2--2-2--2-2-2--2--2-2--2-2-2-|

C#|----------------0--0-0--0-0-0-|

gt2 repeat

Eb|-------------------------------------|

Bb|-------------------------------------|

F#|-/11--11-11--11-11-11--9--9-9--9-9-9-|

C#|-------------------------------------|

G#|-------------------------------------|

C#|-------------------------------------|

end chorus

gt1

Eb|------------------|

Bb|------------------|

F#|------------------|

C#|------------------|

G#|----4-7---7-------|

C#|--5-----4----2~~--|

gt2

Eb|----------------------|

Bb|----------------------|

F#|-------9-----9--------|

C#|-9/11-----9-----------|

G#|----------------9~~~--|

C#|----------------------|

3 times

Eb|------------------|

Bb|------------------|

F#|------------------|

C#|------------------|

G#|----4-7---7-------|

C#|--5-----4----2~~--|

Eb|----------------|

Bb|----------------|

F#|----------------|

C#|----------------|

G#|----4-7---7--4--|

C#|--5-----4----2--|

4 times

Eb|----------------------------------|

Bb|----------------------------------|

F#|----------------------------------|

C#|----------------------------------|

G#|----7-7---7-7---7-7---7-7---7---7-|

C#|--5-----4-----5-----4-----5---4---|

2 times

Eb|---------------------------------------|

Bb|---------------------------------------|

F#|---------------------------------------|

C#|---------------------------------------|

G#|-0-0-0-3-0-0-0-4-0-0-0-5-0-0-0-6-0-7-0-|

C#|---------------------------------------|

2 times

Eb|------------------------------------|

Bb|------------------------------------|

F#|------------------------------------|

C#|-------6-------7-------8-----9---10-|

G#|-7-7-7---7-7-7---7-7-7---7-7---7----|

C#|------------------------------------|

Eb|----------------------------------|

Bb|----------------------------9~~~~-|

F#|----------------------------9~~~~-|

C#|-------6-------7-------8----------|

G#|-7-7-7---7-7-7---7-7-7---7--------|

C#|----------------------------------|

solo

Eb|--------------------------------------------------------------------------------|

Bb|----------------------------------------------------------------5---5h7-7-7---5-|

F#|-4b--4ah~~--4b--4b--4bp2---2--------------------------2---2-4/6---6---------6---|

C#|-------------------------4---4-2-4~~--2-4-4~~-----2-4---4-----------------------|

G#|--------------------------------------------------------------------------------|

C#|--------------------------------------------------------------------------------|

Eb|-------------------------------|

Bb|-------------------------------|

F#|-4h6p4--------4b--2b-----------|

C#|-------7-4h7----------4--4b~~~-|

G#|-------------------------------|

C#|-------------------------------|

verse *repeat*

Eb|--------------------------------|

Bb|--------------------------------|

F#|-2--2---------------------------|

C#|-2--2---2--2--4--4--------------|

G#|-0--0---2--2--4--4--------------|

C#|--------0--0--2--2---0--0--2--0-|

Eb|--------------------|

Bb|--------------------|

F#|-2--2---------------|

C#|-2--2---2--2--4--4--|

G#|-0--0---2--2--4--4--|

C#|--------0--0--2--2--|

chorus

tonight is going to be a jailbreak...

gt1 repeat

Eb|------------------------------|

Bb|------------------------------|

F#|-4--4-4--4-4-4----------------|

C#|-4--4-4--4-4-4--2--2-2--2-2-2-|

G#|-2--2-2--2-2-2--2--2-2--2-2-2-|

C#|----------------0--0-0--0-0-0-|

gt2 repeat

Eb|-------------------------------------|

Bb|-------------------------------------|

F#|-/11--11-11--11-11-11--9--9-9--9-9-9-|

C#|-------------------------------------|

G#|-------------------------------------|

C#|-------------------------------------|

end chorus

gt1

Eb|------------------|

Bb|------------------|

F#|------------------|

C#|------------------|

G#|----4-7---7-------|

C#|--5-----4----2~~--|

gt2

Eb|----------------------|

Bb|----------------------|

F#|-------9-----9--------|

C#|-9/11-----9-----------|

G#|----------------9~~~--|

C#|----------------------|

Eb|------------------------------|

Bb|------------------------------|

F#|-4--4-4--4-4-4----------------|

C#|-4--4-4--4-4-4--2--2-2--2-2-2-|

G#|-2--2-2--2-2-2--2--2-2--2-2-2-|

C#|----------------0--0-0--0-0-0-|

gt2 repeat

Eb|-------------------------------------|

Bb|-------------------------------------|

F#|-/11--11-11--11-11-11--9--9-9--9-9-9-|

C#|-------------------------------------|

G#|-------------------------------------|

C#|-------------------------------------|

end chorus

gt1 fdbk

Eb|------------------|

Bb|------------------|

F#|------------------|

C#|------------------|

G#|----4-7---7-------|

C#|--5-----4----2~~--|

gt2 fdbk

Eb|----------------------|

Bb|----------------------|

F#|-------9-----9--------|

C#|-9/11-----9-----------|

G#|----------------9~~~--|

C#|----------------------|

Get this song at:  amazon.com sheetmusicplus.com

Share your thoughts

0 Comments found