Fu Manchu

Fu Manchu - Im Getting Away guitar tab

IM GETTING AWAY

As recorded by Fu Manchu

Gtr I (D G C F A D) - 'Rhythm Guitar 1'

Gtr II (D G C F A D) - 'Rhythm Guitar 2'

Gtr III (D G C F A D) - 'Solo Guitar'

Intro

Q=130

4/4

Gtr I Gtrs I, II

Q Q E E E E +E E E E Q Q Q Q E E E E +H Q Q

|---------------|-----------------|---------------|---------------|

|---------------|-----------------|---------------|---------------|

|---------------|-----------------|---------------|---------------|

|----5----------|-------5-7-7--5--|----5----------|--------7--7---|

|-7-----7-6-5-5-|-(5)-5-----------|-7-----7-6-5-5-|-(5)----7--7---|

|---------------|-----------------|---------------|--------5--5---|

Chorus

Q Q E E E E +E E E E Q Q Q Q E E E E +H Q Q

|---------------|-----------------|---------------|--------------|

|---------------|-----------------|---------------|--------------|

|---------------|-----------------|---------------|--------------|

|----5----------|-------5-7-7--5--|----5----------|--------7--7--|

|-7-----7-6-5-5-|-(5)-5-----------|-7-----7-6-5-5-|-(5)----7--7--|

|---------------|-----------------|---------------|--------5--5--|

Q Q E E E E +E E E E Q Q Q Q E E E E +H Q Q

|---------------|-----------------|---------------|--------------|

|---------------|-----------------|---------------|--------------|

|---------------|-----------------|---------------|--------------|

|----5----------|-------5-7-7--5--|----5----------|--------5--7--|

|-7-----7-6-5-5-|-(5)-5-----------|-7-----7-6-5-5-|-(5)----5--7--|

|---------------|-----------------|---------------|--------3--5--|

Verse

Q H q Q Q Q Q Q H q Q Q Q Q

||-------------|-------------|------------|------------|

||o------------|-------------|------------|------------|

||-------------|-------------|------------|------------|

||--2-------5--|-2-----5--7--|-2-------5--|-2-----5--7-|

||o-2-------5--|-2-----5--7--|-2-------5--|-2-----5--7-|

||--0-------3--|-0-----3--5--|-0-------3--|-0-----3--5-|

Q H q Q Q Q Q Q H q Q Q Q Q

|------------|-------------|------------|-------------|

|------------|-------------|------------|-------------|

|------------|-------------|------------|-------------|

|-2-------5--|-2-----5--7--|-2-------5--|-2-----5--7--|

|-2-------5--|-2-----5--7--|-2-------5--|-2-----5--7--|

|-0-------3--|-0-----3--5--|-0-------3--|-0-----3--5--|

Q H Q Q Q Q Q Q H Q Q Q Q Q

|-------------|-------------|-------------|-------------|

|-------------|-------------|-------------|-------------|

|-7--------5--|-7-----------|-7--------5--|-7-----------|

|-7--------5--|-7-----5--7--|-7--------5--|-7-----5--7--|

|-5--------3--|-5-----5--7--|-5--------3--|-5-----5--7--|

|-------------|-------3--5--|-------------|-------3--5--|

|

| Gtr III

| ~~ ~ ~~ ~

| H. Q H H H. Q H H

|-------------|-------------|-------------|-------------|

|-------------|-------------|-------------|-------------|

|-7--------5--|-7-----------|-7--------5--|-7-----------|

|-------------|-------------|-------------|-------------|

|-------------|-------------|-------------|-------------|

|-------------|-------------|-------------|-------------|

Chorus

Q Q E E E E +E E E E Q Q Q Q E E E E +H Q Q

|---------------|-----------------|---------------|--------------|

|---------------|-----------------|---------------|--------------|

|---------------|-----------------|---------------|--------------|

|----5----------|-------5-7-7--5--|----5----------|--------7--7--|

|-7-----7-6-5-5-|-(5)-5-----------|-7-----7-6-5-5-|-(5)----7--7--|

|---------------|-----------------|---------------|--------5--5--|

Q Q E E E E +E E E E Q Q Q Q E E E E +H Q Q

|---------------|-----------------|---------------|---------------||

|---------------|-----------------|---------------|--------------o||

|---------------|-----------------|---------------|---------------||

|----5----------|-------5-7-7--5--|----5----------|--------5--7---||

|-7-----7-6-5-5-|-(5)-5-----------|-7-----7-6-5-5-|-(5)----5--7--o||

|---------------|-----------------|---------------|--------3--5---||

Duration Legend

---------------

W - whole; H - half; Q - quarter; E - 8th; S - 16th; T - 32nd; X - 64th; a - acciaccatura

+ - note tied to previous; . - note dotted; .. - note double dotted

Uncapitalized letters represent notes that are staccato (1/2 duration)

Irregular groupings are notated above the duration line

Duration letters will always appear directly above the note/fret number it represents the

duration for. Duration letters with no fret number below them represent rests. Multi-

bar rests are notated in the form Wxn, where n is the number of bars to rest for. Low

melody durations appear below the staff

Tablature Legend

----------------

h - hammer-on

p - pull-off

b - bend

~ - vibrato

Misc Legend

-----------

| - bar

|| - double bar

||o - repeat start

o|| - repeat end

*| - double bar (ending)

Tempo markers - Added by tabs-database.com and our distinguished partners

Get this song at:  amazon.com sheetmusicplus.com

Share your thoughts

0 Comments found