Fu Manchu

Fu Manchu - Hogwash guitar tab

"Hogwash" by Fu Manchu.

From the Album "The Action is go".

Tabbed by SETCH. Brought to you by stickyhomer.

Tuning:-all strings down a full step.

eg(DGCFAD)

This one might be a bit off...I tabbed from memory.

if it is mail me and I will fix it up.

Riff 1. (The first slide is optional)

d|-------------------------------------------|

A|-------------------------------------------|

F|-------------------------------------------|

C|--------------------------5-55-5sl5-5------|

G|-5sl7-7-7-7--5sl7-7-7-7---3-33-3sl5-5------|

D|-3sl5-5-5-5--3sl5-5-5-5--------------------|

Riff 2.

d|-------------------------------------------|

A|-------------------------------------------|

F|-------------------------------------------|

C|------------------7-7-5--------------------|

G|-5sl7-7-7-7--7-7--5-5-3--5--7--------------|

D|-3sl5-5-5-5--5-5---------3--5--------------|

Riff 3.

d|-------------------------------------------|

A|-------------------------------------------|

F|-------------------------------------------|

C|-5------7---------------5--------7---------|

G|-3------5------7--------3--------5------7--|

D|---------------5------------------------5--|

Riff 4.

d|-------------------------------------------|

A|-------------------------------------------|

F|-------------------------------------------|

C|-------------------------------------------|

G|-9--7--9--7---2------5--2--6--2--7---2--2--|

D|-7--5--7--5---0------3--0--4--0--5---0--0--|

Get this song at:  amazon.com sheetmusicplus.com

Share your thoughts

0 Comments found