Fu Manchu

Fu Manchu - Hell On Wheels guitar tab

Hell On Wheels

by Fu Manchu -1999

From King of the Road

tabbed by Tedward

Tune down to Drop D

It should be pretty easy to figure out the order. Just listen to the CD.

E-----------------------------------------------------------------|

B-----------------------------------------------------------------|

G-----------------------------------------------------------------|

D-----------------------------------------------------------------|

A---------------------3--55---------------------------------------|

D--000000000000-------------000000000000--------------------------|

“Cut yourself off from the pack"

E--------------------------------------------------------------------------------|

B--------------------------------------------------------------------------------|

G------7-----------5-----------7-----------7--------5-----7----------10--10--10--|

D------7-----------5-----------7-----0-----7--------5-----7----------10--10- 10--|

A------5-----------3-----------5-----0-----5--------3-----5-----------8---8--8---|

D------------------------------------0 ------------------------------------------|

“Hell On Wheels”

E-------------------------------------------------------------|---------------------|

B-------------------------------------------------------------|---------------------|

G--10-10-10-10-10-10-10--8-8-8-8-8-8--7-7-7-7-7-7-7-7-7-7-7-7-|End 2nd Time---------|

D--10-10-10-10-10-10-10--8-8-8-8-8-8--7-7-7-7-7-7-7-7-7-7-7-7-|---------------------|

A---8--8--8--8--8--8-8---6-6-6-6-6-6--5-5-5-5-5-5-5-5-5-5-5-5-|--5----3-------------|

D-------------------------------------------------------------|------------5----3---|

solo is just noodling around the 10th and 12th frets with a wah

E---------------------------------|-------------------------------------------|

B---------------------------------|-------------------------------------------|

G---------------------------------|-------------------------------------------|

D---------------------------------|-------------------------------------------|

A---------3----5-5----------------|--------3---5-------------5----3-----------|

D--------------------000000000000-|---------------0000000------------5---3----|

Cut yourself off form the pack Hell on wheels is no big deal

Flat out against the freaks Road burnin' across the land

There's nothin' they won't try Hell on Wheels is no big deal

Hot head- Heavy fast they meet

It's been so many days Takin' 'em out of the Masterplan

And we tried every way An ideas whose time has come

We knew of a Masterplan A land ride for everyone

To put the keys in my hand Been like this for years on end

We'll let you know where and when

In my hand, In my hand As he splits the road in two

Underdrive we never knew

At a time when you would think Outrun 'em you know we can

All of a sudden it hits the streets So put the keys in my hand

As they're swappin' the big block In my hand

Slow-motion- time has stopped

El Camaro never dies

Look closely, you'll know why

Outrun 'em you know we can

So put the keys in my hand

Hope this helps anyone. Please e-mail with comments at abnerpstirloin@hotmail.com

Get this song at:  amazon.com sheetmusicplus.com

Share your thoughts

0 Comments found