Fu Manchu

Fu Manchu - Hell On Wheels bass tab

Song: Hell On Wheels

Artist: Fu Manchu

Original tab by Brian (bchan@nc.rr.com)

This version by Ack! (a_thousand_lies@hotmail.com)

Ack! Says:

Brian's version was almost spot on, apart from

errors in the intro/bridge, chorus, and the guitar

solo part.

Just to point out, that last fill on the solo part

is not entirely correct. Hopefully someone can take the

time to work it out. But that sounds marginally ok, so

just improvise. Sorry.

5-string bass, regular tuning.

Key

===

~ - let not ring out

x - dead note

[Intro / Bridge]

G|------------------------|

D|------------------------|

A|--3--555----------------|

E|------------------------|

B|----------333333333333--|

[Verse]

G|---------------------------------------------------------------------------|

D|---------------------------------------------------------------------------|

A|--5~~~~~---3~~~~~----5~~~~~-------------5~~~~~---3~~~~~---5~~~~~---8~~~~~--|

E|---------------------------------------------------------------------------|

B|-------------------------------3~~~~~--------------------------------------|

(let each note ring)

[Chorus]

G|----------------------------------|

D|--3-333--x--1--111--x--000000000--|

A|----------------------------------|

E|----------------------------------|

B|----------------------------------|

[Bridge / Solo]

G|------------------------------| |-----------|

D|------------------------------| |-----------|

A|--3-------55------------------| |--5-4------|

E|------------------------------| |------5-4--|

B|-------------3~~~~~~~~--------| |-----------|

Get this song at:  amazon.com sheetmusicplus.com

Share your thoughts

0 Comments found