Fu Manchu

Fu Manchu - Hang On guitar tab

hang on

by Fu Manchu

from the new album 'california crossing'

transcribed by Christian Reindel (creindel@gmx.de)

any questions or corrections - e-mail me

A great simple rocker - but I miss the dirt sound like on 'in search of'

. - p.m.-notes

TUNE DOWN ONE WHOLE STEP

Intro ending intro

D:|-----------------------------------|-----------------------|

A:|-----------------------------------|-----------------------|

F:|-----------------------------------|-----------------------|

C:|-5-5-5-5-5-5-5-5-5-5-5-5-5-5-5-5-3-|-----------------------|

G:|-3-3-3-3-3-3-3-3-3-3-3-3-3-3-3-3-1-|-3--1---------1--3-----|

D:|-----------------------------------|-------3--1------------|

Verse ending verse

D:|---------------------------------|------------------------------|

A:|---------------------------------|------------------------------|

F:|--------5----5-------3-3-3-------|--------5---5----3--3--3--3---|

C:|-5-5-5--3-5--3-5-5-5-1-1-1--3----|-5-5-5--3-5-3-5--1--1--1--1---|

G:|-3-3-3----3----3-3-3--------1----|-3-3-3----3---3--.--.--.--.---|

D:|---------------------------------|------------------------------|

Chorus ending chorus

D:|----------------------------|-----------------------------|

A:|----------------------------|-----------------------------|

F:|-----------3---3-3-3-5------|----------.--.---------------|

C:|-5--3--5---1---1-1-1-3------|----------1--1---------------|

G:|-3--1--3---.----------------|--3-3--1--------3------------|

D:|----------------------------|-----------------------------|

Interlude

D:|--------------------------------------------------------------|

A:|--------------------------------------------------------------|

F:|--5-5----------------7-7----------------3-3-------------------|

C:|--3-3-5-5---5-5-5-5--5-5-7-7---7-7-7-7--1-1--3-3---3-3-3-3----|

G:|------3-3---3-3-3-3------5-5---5-5-5-5-------1-1---1-1-1-1----|

D:|--------------------------------------------------------------|

ending interlude

D:|--------------------------|

A:|--------------------------|

F:|--------------------------|

C:|--3/5-5--3-35-5-5-5-5---|

G:|--1/3-3--1-13-3-3-3-3---|

D:|--------------------------|

Last chords

D:|-------------------------------------------------|

A:|-------------------------------------------------|

F:|-------------------------------------------------|

C:|--3-(3)-4-(4)-5-///////////////////////////------|

G:|--1-(1)-2-(2)-3-///////////////////////////------|

D:|-------------------------------------------------|

end.

Get this song at:  amazon.com sheetmusicplus.com

Share your thoughts

0 Comments found