Fu Manchu

Fu Manchu - Guard Rail guitar tab

"Guard Rail" by Fu Manchu, from the album "The Action is Go".

Tabbed by SETCH.

Tuning:-all strings down a full step.

eg(DGCFAD)

Riff 1. (intro)

bass or guitar with some serious wah wah type shit going on!

d|-------------------------------------------|

A|-------------------------------------------|

F|-------------------------------------------|

C|---5h7-7-7p5---5h7-7-5----777--77----------|

G|-7-----------7---------0--555--55-5--------|

D|----------------------------------3--------|

Riff 2.

dist guitar

d|-------------------------------------------|

A|-------------------------------------------|

F|-------------------------------------------|

C|---5h7-7-7p5---5h7-7-5----777--77----------|

G|-7-----------7---------0--555--55-5--------|

D|----------------------------------3--------|

Riff 3. (chorus)

d|-------------------------------------------|

A|-------------------------------------------|

F|-------------------------------------------|

C|-7-------------------------(rest)----------|

G|-7-----------------------------------------|

D|-5--

Get this song at:  amazon.com sheetmusicplus.com

Share your thoughts

0 Comments found