Fu Manchu

Fu Manchu - Grendel Snowman guitar tab

"Grendel, Snowman" by Fu Manchu.

From the Album "The Action is go".

Tabbed by SETCH. Brought to you by stickyhomer.

Tuning:-all strings down a full step then drop low D

down to C.

eg(CGCFAD)

Bass Intro

F|--------------------------------------------------------|

C|--------------------------------------------------------|

G|--------------------------------------------------------|

C|-0--6-5-3-0--3--0-0-0-3h5-5-0--6-5-3-0--3--0-0-0-3-1----|

Riff 1. (verse)

d|--------------------------------------------------------|

A|--------------------------------------------------------|

F|--------------------------------------------------------|

C|--------------------------------------------------------|

G|-0--6-5-3-0--3--0-0-0-3-5---0--6-5-3-0--3--0-0-0-3-1----|

C|-0--6-5-3-0--3--0-0-0-3-5---0--6-5-3-0--3--0-0-0-3-1----|

Riff 2. (chorus)

d|--------------------------------------------------------|

A|--------------------------------------------------------|

F|--------------------------------------------------------|

C|--------------------------------------------------------|

G|-------------0--6-----------------------0-3-6--5--------|

C|-0--0--rest--0--6-----------0--0--rest--0h3-6--5--------|

Riff 3. (interlude)

d|--------------------------------------------------------|

A|--------------------------------------------------------|

F|--------------------------------------------------------|

C|--------------------------------------------------------|

G|---3h5-5b6-3h5-5b6-3h5-5b6r5---3h5-5b6-3h5-5b6-3h5-5b6r5|

D|-0---------------------------0--------------------------|

Riff 4. (interlude end)

d|--------------------------------------------------------|

A|--------------------------------------------------------|

F|--------------------------------------------------------|

C|--------------------------------------------------------|

G|-0---------------------------0--------------------------|

C|-0-----let-ring--------------0-----let-ring-------------|

Get this song at:  amazon.com sheetmusicplus.com

Share your thoughts

0 Comments found