Fu Manchu

Fu Manchu - Godzilla guitar tab

Fu Manchu-Godzilla

DGCFAd

Intro/verse~

Guitar one~ Guitar 2 comes in after the 2nd time

--------------------------------------------|--------------------------------------------------------------

--------------------------------------------|--------------------------------------------------------------

---------5-7----------------9-10---------|------10b12--10-------------------------------------------------

-5-5----5-7----7-8-8------9-10----10--|-----------------------------------------------------------------

-5-5----3-5----7-8-8------7-8------10-|------------------------------------------------------------------

-3-3------------5-6-6-----------------8--|----------------------------------------------------------------------

Fills come in after all lyrics-

-----------------------------------------------|-----------------------------------------------------------|----------------------------------------------------

-----------------------------------------------|-----------------------------------------------------------|------------------------------------------11--------

-0/--------------------------------------------|-----------------------------------------------------------|-------10-12-10-12-12-12-10h12--------12-12-

-0/--------------------------------------------|------10b-10b-10b-10p8---------------8---------------|---12-----------------------------------------------

-0/--------------------------------------------|-------------------------------10-8h10--------10-10----|----------------------------------------------------

-0/--------------------------------------------|------------------------------------------------------------|----------------------------------------------------

^ slowly drop tremolo bar down towards pickups

Guitar 2 stops when singin comes in

Chorus~

---------------------------------------------------------------|-------------------------------------------|

---------------------------------------------------------------|-------------------------------------------|

---------------------------------------------------------------|-------------------------------------------|

-3-3-3-3-3-3-3-3-3-3-3-3-3-3-3-3/----------------------|5-5-5-5-5-5-5-5-5-5-5-5-5-5-5-5----|

-3-3-3-3-3-3-3-3-3-3-3-3-3-3-3-3/----------------------|5-5-5-5-5-5-5-5-5-5-5-5-5-5-5-5----|

-1-1-1-1-1-1-1-1-1-1-1-1-1-1-1-1/----------------------|3-3-3-3-3-3-3-3-3-3-3-3-3-3-3-3----|

“ohhhhh no, they say he’s got to go, go go Godzilla”

Fills in the chorus

---------------------------------

-13b-11-11h13---------------

---------------------12~~10h12///~---

---------------------------------

---------------------------------

---------------------------------

Solo

-------------------------------------------------------------------------------------------------------------------------------------------------

---------------------------------------------------------------------------------------------------------------------------------------------------

-----------------------------------7h10p7------------------------------------------------------------------------------------------------------

------------8-10-10b-10b-----------------------8-----------------8-10-10b-10b-10b-10b-10b 10b-10b-10b-10-8-8h10--------------

-8-10-----------------------------------------------------10-12---------------------------------------------------------------------------10--

----------------------------------------------------------------------------------------------------------------------------------------------------

-----------------------------------------------------------------------------------15--13-15-17-15-13-15-17-15-13-15-17-15-13-15-17—18h20--

------------------------------------------------------------------------15h18------------------------------------------------------------------

----------------------------------15---------15—17-15-17b-17b----------------------------------------------------------------------------

---------------------------17---------17---------------------------------------------------------------------------------------------------

10-8-5----------------------------------------------------------------------------------------------------------------------------------------------------------

-----------8-6-3~~---------------------------------------------------------------------------------------------------------------------------------------------

-15p13-15~--------------------------------------------------------------------------------------

-----------------15-13------------------------------------------------------------------------

---------------------------15-12~~~~---------------------------------------------------------------

-----------------------------------------------------------------------------------------

-----------------------------------------------------------------------------------------

-----------------------------------------------------------------------------------------

THERE!!! Its finally finished!!!! The second half of the solo is sketchy, but work with

it, give me suggestions, I would like to learn it right also! lol

Get this song at:  amazon.com sheetmusicplus.com

Share your thoughts

0 Comments found