Fu Manchu

Fu Manchu - Gathering Speed guitar tab

"Gathering Speed" by Fu Manchu.

From the Album "Daredevil".

Tabbed by SETCH. Brought to you by stickyhomer.

Tuning:-all strings down a full step.

eg(DGCFAD)

Riff 1. Intro and Verse

d|-------------------------------------------|

A|-------------------------------------------|

F|-------------------------------------------|

C|-------------------------------------------|

G|-7--9--9-9--9--12--12-12--12--14--14-14-14-|

D|-5sl7--7-7--7sl10--10-10--10sl12--12-12-12-|

Riff 2. Chorus(ish)

d|----------------------------------------------------|

A|----------------------------------------------------|

F|----------------------------------------------------|

C|----------------------------------------------------|

G|-9-9------5-7sl9-7-5-7-5---9-9------5-7sl9-7-9-12~~-|

D|-7-7--5-7------------------7-7--5-7-----------------|

Riff 3. Chorus(ish) keychange.

d|----------------------------------------------------|

A|----------------------------------------------------|

F|----------------------------------------------------|

C|----------------------------------------------------|

G|-1111-----7-9sl11-9-7-9-7--1111-----7-9sl11-9-11-14~|

D|-9-9--7-9------------------9-9--7-9-----------------|

Riff 4. Interlude

d|-------------------------------------------|

A|-------------------------------------------|

F|-------------------------------------------|

C|----------5--5-5---------------8--7-8--7---|

G|-5--7-7---3--3-3---5--7-7---3--6sl5-6sl5---|

D|-3sl5-5-x----------3sl5-5-x----------------|

Get this song at:  amazon.com sheetmusicplus.com

Share your thoughts

0 Comments found