Fu Manchu

Fu Manchu - Eatin Dust guitar tab

Drop-d

Intro

e--------------------------------------------------------------------------------

B------------------------------------------------------------------------------

G------------------------------------------------------------------------

D-------------3p0----------------------------3p0----------------------------------

A-------3h5--------3-3-5-3-5--------3h5--------3-3-5-----------------------------

D-5h7--------------------------- 5h7----------------------------------------------

Verse

e----------------------------------------------------------------------------

B-----------------------------------------------------------------------------------

G---7--7----------------------------------------------------------------------------

D---7--7---8-3-3-6-1-1------------------------------------------------------------

A---5--5---8-3-3-6-1-1----------------------------------------------------

D-----------8-3-3-6-1-1--------------------------------------------------------

thats all i have so far, but im still workin on it, bad ass song!

Get this song at:  amazon.com sheetmusicplus.com

Share your thoughts

0 Comments found