Fu Manchu

Fu Manchu - Drive guitar tab

drive

fu manchu

TRANSCRIBED BY RUDY GUZMAN

guzman_84@hotmail.com

eb:---------------------------------------------|

Bb:---------------------------------------------|

Gb:---------------------------------------------|

Db:-----------------5------------5---------5----|

Ab:--5nh-5nh--------5------------5---------5----|

Eb:--4nh-4nh--------3------------3---------3----|

eb:---------------|

Bb:---------------|

Gb:---------------|

Db:-8-8---5--3--5-|

Ab:-8-8---5--3--5-|

Eb:-6-6---3--1--3-|

eb:-----------------|

Bb:-----------------|

Gb:-----------------|

Db:-5--5-5-5--8--10-| x 3

Ab:-5--5-5-5--8--10-|

Eb:-3--3-3-3--6--8--|

eb:---------------|

Bb:---------------|

Gb:---------------|

Db:-8-8---5--3--5-|

Ab:-8-8---5--3--5-|

Eb:-6-6---3--1--3-|

eb:-----------------|

Bb:-----------------|

Gb:-----------------|

Db:-5--5-5-5--8--10-| x 3

Ab:-5--5-5-5--8--10-|

Eb:-3--3-3-3--6--8--|

eb:---------------|

Bb:---------------|

Gb:---------------|

Db:-8-8---5--3--5-|

Ab:-8-8---5--3--5-|

Eb:-6-6---3--1--3-|

-

:---------------------------/------------------------|

:--------------------------/-------------------------|

:---------3-5b-------3-5bf/--5p3---3------3-3--------|

:-5---3-5--------3-5-------------5---5-3------5--3-5-|

:----------------------------------------------------|

:----------------------------------------------------|

-

:----------------/--------------------------------|

:---------------/---------------------------------|

:---------3-5bf/--5p3-5p3---3------------3-3------|

:-5---3-5-----------------5---5p3-5p3--------5/---|

:--------------------------------------5----------|

:-------------------------------------------------|

verse

eb:----------------------------------|

Bb:----------------------------------|

Gb:----------------------------------|

Db:------5------------5---------5----|

Ab:------5------------5---------5----|

Eb:------3------------3---------3----|

eb:---------------|

Bb:---------------|

Gb:---------------|

Db:-8-8---5--3--5-|

Ab:-8-8---5--3--5-|

Eb:-6-6---3--1--3-|

drive drive drive

eb:-----------------|

Bb:-----------------|

Gb:-----------------|

Db:-5--5-5-5--8--10-| x 3

Ab:-5--5-5-5--8--10-|

Eb:-3--3-3-3--6--8--|

eb:---------------|

Bb:---------------|

Gb:---------------|

Db:-8-8---5--3--5-|

Ab:-8-8---5--3--5-|

Eb:-6-6---3--1--3-|

eb:-----------------|

Bb:-----------------|

Gb:-----------------|

Db:-5--5-5-5--8--10-| x 3

Ab:-5--5-5-5--8--10-|

Eb:-3--3-3-3--6--8--|

eb:---------------|

Bb:---------------|

Gb:---------------|

Db:-8-8---5--3--5-|

Ab:-8-8---5--3--5-|

Eb:-6-6---3--1--3-|

eb:--------------------------------------------------------|

Bb:--------------------------------------------------------|

Gb:--------------------------------------------------------|x 2

Db:-5/7-7-7-7--7--5/7-7-7-7--7--3/5-5-5-5--5--3/5-5-5-5--5-|

Ab:-3/5-5-5-5--5--3/5-5-5-5--5--1/3-3-3-3--3--1/3-3-3-3--3-|

Eb:--------------------------------------------------------|

eb:-----------------|

Bb:-----------------|

Gb:-----------------|

Db:-5--5-5-5--8--10-| x 3

Ab:-5--5-5-5--8--10-|

Eb:-3--3-3-3--6--8--|

eb:---------------|

Bb:---------------|

Gb:---------------|

Db:-8-8---5--3--5-|

Ab:-8-8---5--3--5-|

Eb:-6-6---3--1--3-|

eb:---------------------------------------------------------------------------------------|

Bb:-3b--3b-----------3b-------------------------------------------------------------------|

Gb:-5b--5b--5b-3-5b--5b--5b-3-5b-5-3---3-------3-3--------3-------------------3-5b--5p3---|

Db:----------------------------------5---5-3-5-----5-3-5----5-3---3-------3-5-----------5-|

Ab:-------------------------------------------------------------5---5p3-5-----------------|

Eb:---------------------------------------------------------------------------------------|

:----------------------------|

:----------------------------|

:-3---3----------3-3---------|

:---5----5-3----------5--3-5-|

:------------5---------------|

:----------------------------|

verse

eb:----------------------------------|

Bb:----------------------------------|

Gb:----------------------------------|

Db:------5------------5---------5----|

Ab:------5------------5---------5----|

Eb:------3------------3---------3----|

eb:---------------|

Bb:---------------|

Gb:---------------|

Db:-8-8---5--3--5-|

Ab:-8-8---5--3--5-|

Eb:-6-6---3--1--3-|

drive drive drive

eb:-----------------|

Bb:-----------------|

Gb:-----------------|

Db:-5--5-5-5--8--10-| x 3

Ab:-5--5-5-5--8--10-|

Eb:-3--3-3-3--6--8--|

eb:---------------|

Bb:---------------|

Gb:---------------|

Db:-8-8---5--3--5-|

Ab:-8-8---5--3--5-|

Eb:-6-6---3--1--3-|

eb:-----------------|

Bb:-----------------|

Gb:-----------------|

Db:-5--5-5-5--8--10-| x 3

Ab:-5--5-5-5--8--10-|

Eb:-3--3-3-3--6--8--|

eb:---------------|

Bb:---------------|

Gb:---------------|

Db:-8-8---5--3--5-|

Ab:-8-8---5--3--5-|

Eb:-6-6---3--1--3-|

eb:--------------------------------------------------------|

Bb:--------------------------------------------------------|

Gb:--------------------------------------------------------|x 2

Db:-5/7-7-7-7--7--5/7-7-7-7--7--3/5-5-5-5--5--3/5-5-5-5--5-|

Ab:-3/5-5-5-5--5--3/5-5-5-5--5--1/3-3-3-3--3--1/3-3-3-3--3-|

Eb:--------------------------------------------------------|

eb:---------------------|

Bb:---------------------|

Gb:---------------------|

Db:---------------------| x 3

Ab:---------------------|

Eb:-3--3-3-3--6--3--1-3-|

eb:---------------|

Bb:---------------|

Gb:---------------|

Db:---------------|

Ab:---------------|

Eb:-6-6---3--1--3-|

eb:---------------------------------------------------------------------------------------|

Bb:---------------------------------------------------------------------------------------|

Gb:-4bf--4b-4--2--4bf-4b-4--2-4bf-4-2---2-2-------2-------2--4-4b--4p2-4-2-2--4bf-4-2---2-|

Db:-----------------------------------4-----4-2-4---4p2-4-----------------------------4---|

Ab:---------------------------------------------------------------------------------------|

Eb:---------------------------------------------------------------------------------------|

eb:-------------------------------------------------------------------------------------|

Bb:-------------------------------------------------------------------------------------|

Gb:---2-----2-2-------------------------------------2-2---------2----4p2---4b-4p2-------|

Db:-4---4-2-----4-2-4p2--------------------2-2--2h4-----4p2-2-4---4------4--------4-2---|

Ab:---------------------4-2------------2-4----------------------------------------------|

Eb:-------------------------5b-2-0-2-5--------------------------------------------------|

eb:-----------------------------------|

Bb:-----------------------------------|

Gb:---------------------2-2-----------|

Db:-4p2-4p2--------2-4------4-2-4b~~~-|

Ab:---------4-2--4--------------------|

Eb:-----------------------------------|

eb:--------------------------------------------------------|

Bb:--------------------------------------------------------|

Gb:--------------------------------------------------------|x 4

Db:-5/7-7-7-7--7--5/7-7-7-7--7--3/5-5-5-5--5--3/5-5-5-5--5-|

Ab:-3/5-5-5-5--5--3/5-5-5-5--5--1/3-3-3-3--3--1/3-3-3-3--3-|

Eb:--------------------------------------------------------|

drive drive drive

eb:-----------------|

Bb:-----------------|

Gb:-----------------|

Db:-5--5-5-5--8--10-| x 3

Ab:-5--5-5-5--8--10-|

Eb:-3--3-3-3--6--8--|

eb:---------------|

Bb:---------------|

Gb:---------------|

Db:-8-8---5--3--5-|

Ab:-8-8---5--3--5-|

Eb:-6-6---3--1--3-|

eb:-----------------|

Bb:-----------------|

Gb:-----------------|

Db:-5--5-5-5--8--10-| x 3

Ab:-5--5-5-5--8--10-|

Eb:-3--3-3-3--6--8--|

eb:---------------|

Bb:---------------|

Gb:---------------|

Db:-8-8---5--3--5-|

Ab:-8-8---5--3--5-|

Eb:-6-6---3--1--3-|

pick slide *slowly*

:-----------------------------------------|

:-----------------------------------------|

:-----------------------------------------|

:-----------------------------------------|

:-x/--------------------------------------|

:-x/--------------------------------------|

eb:----------------------|

Bb:-2b-2b-2b-2b-2b-2b-2b-|

Gb:-4b-4b-4b-4b-4b-4b-4b-|

Db:----------------------|

Ab:----------------------|

Eb:----------------------|

eb:---2------------------------------------------------------------------------------------|

Bb:5b---5p2-5p2-5-2------------------------------------------2b-2b-------------------------|

Gb:-----------------4-2-4b-4p2---2-------2-------------------4b-4b-4p2---2-----------2-2---|

Db:----------------------------4---4-2-4---4p2-4p2---2----2------------4---4-2---2-4-----4/|

Ab:------------------------------------------------4----4----------------------4-----------|

Eb:----------------------------------------------------------------------------------------|

Get this song at:  amazon.com sheetmusicplus.com

Share your thoughts

0 Comments found