Fu Manchu

Fu Manchu - Downtown In Dogtown guitar tab

This song is played in Drop D tuning

|o---o| means repeat once unless otherwise posted

Intro(32 picks)

e|---------------------------------------------------------------------------------

B|---------------------------------------------------------------------------------

G|---------------------------------------------------------------------------------

D|---------------------------------------------------------------------------------

A|-------0-0-0-0-0-0-0-0-0-0-0-0-0-0-0-0-0-0-0-0-0-0-0-0-0-0-0-0-0-0-0-0-----------

D|---------------------------------------------------------------------------------

e|--------------------------------------------------------------------------------|

B|o------------------------------------------------------------------------------o|

G|--------------------------------------------------------------------------------|

D|-------5--7-7---------5--7-7---------5--7-7---------10-10-10--5-5-5-------------|

A|o------5--7-7-0-0-0-0-5--7-7-0-0-0-0-5--7-7-0-0-0-0-10-10-10--5-5-5------------o|

D|-------5--7-7---------5--7-7---------5--7-7---------10-10-10--5-5-5-------------|

Verse "So few..."

e|--------------------------------------------------------------------------------|

B|o------------------------------------------------------------------------------o|

G|--------------------------------------------------------------------------------|

D|-------5--7-7---------5--7-7---------5--7-7---------10-10-10--5-5-5-------------|

A|o------5--7-7---------5--7-7---------5--7-7---------10-10-10--5-5-5------------o|

D|-------5--7-7---------5--7-7---------5--7-7---------10-10-10--5-5-5-------------|

e|---------------------------------------------------------------------------------

B|---------------------------------------------------------------------------------

G|---------------------------------------------------------------------------------

D|-------5--7-7---------5--7-7---------5--7-7---------10-10-10--5-5-5--------------

A|-------5--7-7-0-0-0-0-5--7-7-0-0-0-0-5--7-7-0-0-0-0-10-10-10--5-5-5--------------

D|-------5--7-7---------5--7-7---------5--7-7---------10-10-10--5-5-5--------------

e|---------------------------------------------------------------------------------

B|---------------------------------------------------------------------------------

G|---------------------------------------------------------------------------------

D|-------5--7-7---------5--7-7---------5--7-7---------10----12---------------------

A|-------5--7-7-0-0-0-0-5--7-7-0-0-0-0-5--7-7-0-0-0-0-10----12---------------------

D|-------5--7-7---------5--7-7---------5--7-7---------10----12---------------------

Chorus "Downtown in..."

e|---------------------------------------------------------------------------------

B|---------------------------------------------------------------------------------

G|---------------------------------------------------------------------------------

D|---------------------------------------------------------------------------------

A|--3--2-1-0-3-3-0--3-0----3--2-1-0-3-3-0---3--2-1-0-3-3-0--3-0----3--2-1-0-3-3-0--

D|---------------------------------------------------------------------------------

There is a slide on the 6th string here^.........................and right here^

Verse "Rockin early..."

e|---------------------------------------------------------------------------------

B|---------------------------------------------------------------------------------

G|---------------------------------------------------------------------------------

D|-------5--7-7---------5--7-7---------5--7-7---------10-10-10--5-5-5--------------

A|-------5--7-7-0-0-0-0-5--7-7-0-0-0-0-5--7-7-0-0-0-0-10-10-10--5-5-5--------------

D|-------5--7-7---------5--7-7---------5--7-7---------10-10-10--5-5-5--------------

e|---------------------------------------------------------------------------------

B|---------------------------------------------------------------------------------

G|---------------------------------------------------------------------------------

D|-------5--7-7---------5--7-7---------5--7-7---------10----12---------------------

A|-------5--7-7-0-0-0-0-5--7-7-0-0-0-0-5--7-7-0-0-0-0-10----12---------------------

D|-------5--7-7---------5--7-7---------5--7-7---------10----12---------------------

Chorus "Downtown in..."

e|---------------------------------------------------------------------------------

B|---------------------------------------------------------------------------------

G|---------------------------------------------------------------------------------

D|---------------------------------------------------------------------------------

A|--3--2-1-0-3-3-0--3-0----3--2-1-0-3-3-0---3--2-1-0-3-3-0--3-0----3--2-1-0-3-3-0--

D|---------------------------------------------------------------------------------

There is a slide on the 6th string here^.........................and right here^

(Play 4 times)"Best thing i've..."

e|--------------------------------------------------------------------------------|

B|o------------------------------------------------------------------------------o|

G|--------------------------------------------------------------------------------|

D|------7-7-7-7-7-7-7-7-7-7-7-7-7-7-7-7-10-9-10-12-10---10-10-10-5-5--------------|

A|o-----7-7-7-7-7-7-7-7-7-7-7-7-7-7-7-7-10-9-10-12-10---10-10-10-5-5-------------o|

D|------7-7-7-7-7-7-7-7-7-7-7-7-7-7-7-7-10-9-10-12-10---10-10-10-5-5--------------|

e|---------------------------------------------------------------------------------

B|---------------------------------------------------------------------------------

G|---------------------------------------------------------------------------------

D|-----5-5-7--10-7---5-5-7--10-7---5-5-7--10-7---5-5-7-----------------------------

A|-----5-5-7--10-7---5-5-7--10-7---5-5-7--10-7---5-5-7-----------------------------

D|-----5-5-7--10-7---5-5-7--10-7---5-5-7--10-7---5-5-7-----------------------------

Verse "So few have..."

e|--------------------------------------------------------------------------------|

B|o------------------------------------------------------------------------------o|

G|--------------------------------------------------------------------------------|

D|-------5--7-7---------5--7-7---------5--7-7---------10-10-10--5-5-5-------------|

A|o------5--7-7---------5--7-7---------5--7-7---------10-10-10--5-5-5------------o|

D|-------5--7-7---------5--7-7---------5--7-7---------10-10-10--5-5-5-------------|

e|---------------------------------------------------------------------------------

B|---------------------------------------------------------------------------------

G|---------------------------------------------------------------------------------

D|-------5--7-7---------5--7-7---------5--7-7---------10-10-10--5-5-5--------------

A|-------5--7-7-0-0-0-0-5--7-7-0-0-0-0-5--7-7-0-0-0-0-10-10-10--5-5-5--------------

D|-------5--7-7---------5--7-7---------5--7-7---------10-10-10--5-5-5--------------

e|---------------------------------------------------------------------------------

B|---------------------------------------------------------------------------------

G|---------------------------------------------------------------------------------

D|-------5--7-7---------5--7-7---------5--7-7---------10----12---------------------

A|-------5--7-7-0-0-0-0-5--7-7-0-0-0-0-5--7-7-0-0-0-0-10----12---------------------

D|-------5--7-7---------5--7-7---------5--7-7---------10----12---------------------

Chorus "Downtown in..."

e|---------------------------------------------------------------------------------

B|---------------------------------------------------------------------------------

G|---------------------------------------------------------------------------------

D|---------------------------------------------------------------------------------

A|--3--2-1-0-3-3-0--3-0----3--2-1-0-3-3-0---3--2-1-0-3-3-0--3-0----3--2-1-0-3-3-0--

D|---------------------------------------------------------------------------------

There is a slide on the 6th string here^.........................and right here^

(Play 4 times)"Best thing i've..."

e|--------------------------------------------------------------------------------|

B|o------------------------------------------------------------------------------o|

G|--------------------------------------------------------------------------------|

D|------7-7-7-7-7-7-7-7-7-7-7-7-7-7-7-7-10-9-10-12-10---10-10-10-5-5--------------|

A|o-----7-7-7-7-7-7-7-7-7-7-7-7-7-7-7-7-10-9-10-12-10---10-10-10-5-5-------------o|

D|------7-7-7-7-7-7-7-7-7-7-7-7-7-7-7-7-10-9-10-12-10---10-10-10-5-5--------------|

e|--------------------------------------------------------------------------------|

B|o------------------------------------------------------------------------------o|

G|--------------------------------------------------------------------------------|

D|-----5-5-7--10-7---5-5-7--10-7---5-5-7--10-7---5-5-7--10-7----------------------|

A|o----5-5-7--10-7---5-5-7--10-7---5-5-7--10-7---5-5-7--10-7---------------------o|

D|-----5-5-7--10-7---5-5-7--10-7---5-5-7--10-7---5-5-7--10-7----------------------|

e|--------------------------------------------------------------------------------|

B|o------------------------------------------------------------------------------o|

G|--------------------------------------------------------------------------------|

D|-----6-6-8--11-8---6-6-8--11-8---6-6-8--11-8---6-6-8--11-8----------------------|

A|o----6-6-8--11-8---6-6-8--11-8---6-6-8--11-8---6-6-8--11-8---------------------o|

D|-----6-6-8--11-8---6-6-8--11-8---6-6-8--11-8---6-6-8--11-8----------------------|

e|---------------------------------------------------------------------------------

B|---------------------------------------------------------------------------------

G|---------------------------------------------------------------------------------

D|-----5-5-7--10-7---5-5-7--10-7---5-5-7--10-7---5-5-7--10-7-----------------------

A|-----5-5-7--10-7---5-5-7--10-7---5-5-7--10-7---5-5-7--10-7-----------------------

D|-----5-5-7--10-7---5-5-7--10-7---5-5-7--10-7---5-5-7--10-7-----------------------

(Use the Wah a little bit on this last part)

e|---------------------------------------------------------------------------------

B|---------------------------------------------------------------------------------

G|---------------------------------------------------------------------------------

D|-----5-5-7--10-7---5-5-7--10-7---5-5-7--10-7---5-5-7-----------------------------

A|-----5-5-7--10-7---5-5-7--10-7---5-5-7--10-7---5-5-7-----------------------------

D|-----5-5-7--10-7---5-5-7--10-7---5-5-7--10-7---5-5-7-----------------------------

Get this song at:  amazon.com sheetmusicplus.com

Share your thoughts

0 Comments found