Fu Manchu

Fu Manchu - Cyclone Launch guitar tab

"Cyclone Launch" by Fu Manchu, from the album "In Search of..."

Tabbed by SETCH.

Tuning:-all strings down a full step.

eg(DGCFAD)

Riff 1. (intro)

d|---------------------------------------------------------|

A|---------------------------------------------------------|

F|---------------------------------------------------------|

C|---------------------------------------------------------|

G|-3--5-5-5-5-5-5-8-5------3--5-5-5-5-5-5-8-5--10----------|

D|-1sl3-3-3-3-3-3-6-3------1sl3-3-3-3-3-3-6-3--8-----------|

Riff 2. (verse)

After second repeat Guitar 2 joins one octave higher.

d|---------------------------------------------------------|

A|---------------------------------------------------------|

F|---------------3---3-------------------3---3h5p3---5b(7)-|

C|-3h5-5-5-5-5-5---5---5---3h5-5-5-5-5-5---5-------5-------|

G|---------------------------------------------------------|

D|---------------------------------------------------------|

Riff 3.

d|---------------------------------------------------------|

A|---------------------------------------------------------|

F|---------------------------------------------------------|

C|------------------------------------3--------------------|

G|-5--8-8-8-8-8-8--10-10-10----3-5--3-1--3-5--2-3-4--------|

D|-3sl6-6-6-6-6-6sl8--8--8-----1-3--1----1-3--0-1-2--------|

Thats all folks!

__ _ __ __

/_ /_ / / /_/

__/ /_ / /_ / /.........

Get this song at:  amazon.com sheetmusicplus.com

Share your thoughts

0 Comments found