Fu Manchu

Fu Manchu - Coyote Duster guitar tab

"Coyote Duster" by Fu Manchu.

From the Album "Daredevil".

Tabbed by SETCH. Brought to you by stickyhomer.

Tuning:-all strings down a full step.

eg(DGCFAD)

Riff 1.

d|------------------------------------------|

A|---------------7----7---------------------|

F|---------------9b11-9b11------------------|

C|------12-12------------------7-9--9p7-----|

G|------10-10-x------------7h9----------9-7-|

D|-0-0--------------------------------------|

Riff 2.

d|------------------------------------------|

A|------------------------------------------|

F|------------------------------------------|

C|------------------------------------------|

G|-2------------------2-2-------------------|

D|-0------------------0-0-------------------|

d|------------------------------------------|

A|------------------------------------------|

F|------------------------------------------|

C|------------------------------------------|

G|-2--------------------2-------------------|

D|-0--------------------0-0-0-0-0-0-0-0-0-0-|

Riff 3.

d|------------------------------------------|

A|------------------------------------------|

F|------------------------------------------|

C|-9-9-7-9--7-7-5-7--6-6-6---6-6------------|

G|-7-7-5-7--5-5-3-5--4-4-4---4-4----3-2-3-2-|

D|--------------------------------0-3-2-3-2-|

Riff 4.

d|------------------------------------------|

A|------------------------------------------|

F|------------------------------------------|

C|-9---------9-9------9---------9-9---------|

G|-7---------7-7------7---------7-7----7-5--|

D|-----------------------------------0-5-3--|

Final Riff.

d|------------------------------------------|

A|------------------------------------------|

F|------------------------------------------|

C|-9--9p7------9--9p7------9--9p7------9----|

G|--------9-7---------9-7---------9-7--7----|

D|-------------------------------------0----|

Get this song at:  amazon.com sheetmusicplus.com

Share your thoughts

0 Comments found