Fu Manchu

Fu Manchu - California Crossing guitar tab

california crossing

by Fu Manchu

from the new album 'california crossing'

transcribed by Christian Reindel (creindel@gmx.de)

any questions or corrections - e-mail me

TUNE DOWN ONE WHOLE STEP

.- stop the delay

Intro

D:|----------------------------------------|

A:|----------------------------------------|

F:|----------------------------------------|

C:|----------------------------------------|

G:|-7-7-7-7-7-7-7-7-7-7-7-7-5-5-5----------|

D:|----------------------------------------|

also Intro and Chorus

D:|----------------------------------------|

A:|----------------------------------------|

F:|----------------------------------------|

C:|-9-9-9-9-9-9-9-9-9-9-9-9-7-7-7----------|

G:|-7-7-7-7-7-7-7-7-7-7-7-7-5-5-5----------|

D:|----------------------------------------|

Verse

D:|--------------------------------------------------|

A:|--------------------------------------------------|

F:|--------------------------------------------------|

C:|-------------------5------------------------------|

G:|-7--7--5/7--7--------7----7--7--5/7--7------5-7---|

D:|-.--.-------.--5h7--------.--.-------.--5h7-------|

pre-chorus

D:|------------------------------------------------------------------|

A:|------------------------------------------------------------------|

F:|------------------------------------------------------------------|

C:|-5-5-5-5-5-5-5-5-5-5-5-5-5-5-5-5/7-7-7-7-7-7-7-7-7-7-7-7-7-7-7-7--|

G:|-3-3-3-3-3-3-3-3-3-3-3-3-3-3-3-3/5-5-5-5-5-5-5-5-5-5-5-5-5-5-5-5--|

D:|------------------------------------------------------------------|

interlude

D:|------------------------|

A:|------------------------|

F:|------------------------|

C:|-7-(7)-----10--(10)-----|

G:|-5-(5)------8---(8)-----|

D:|------------------------|

rhythm under guitarsolo

D:|----------------------------------------|

A:|----------------------------------------|

F:|----------------------------------------|

C:|-7-7-7-7-7-7-7-7-7-7-7-7-7-7-7-7-7-7-7--|

G:|-5-5-5-5-5-5-5-5-5-5-5-5-5-5-5-5-5-5-5--|

D:|----------------------------------------|

end.

Get this song at:  amazon.com sheetmusicplus.com

Share your thoughts

0 Comments found