Fu Manchu

Fu Manchu - Bultaco guitar tab

bultaco

by Fu Manchu

from the new album 'california crossing'

transcribed by Christian Reindel (creindel@gmx.de)

any questions or corrections - e-mail me

A great simple rocker - but I miss the dirt sound like on 'in search of'

TUNE DOWN ONE WHOLE STEP

Riff 1 - intro and verse

D:|---------------------------------------|

A:|---------------------------------------|

F:|---------------------------------------|

C:|---------------------------------------|

G:|-5-5-5-5-3-3-3-3-----------------------|

D:|-----------------3/5-5-5-5-5-5-5-5-----|

Riff 2

D:|------------------------------------------------------------------------|

A:|------------------------------------------------------------------------|

F:|------------------------------------------------------------------------|

C:|-7-7-7-7-5-5-5-5---------------------7-7-7-7-5-5-5-5-----------3--5-5---|

G:|-5-5-5-5-3-3-3-3--7------------------5-5-5-5-3-3-3-3--7---3--5----------|

D:|------------------5----3--5--3--5-5-------------------5-----------------|

Riff 3 - the light has blind my eyes ...

D:|---------------------------------|

A:|---------------------------------|

F:|---------------------------------|

C:|--5---5-------7---7-7-7--7-------|

G:|--3---3-5---5-5---5-5-5--5-------|

D:|--------3---3-----.-.-.----------|

Riff 4 - rhythm under guitarsolo

D:|------------------------------|

A:|------------------------------|

F:|------------------------------|

C:|-----------5--7-7--7-7--------|

G:|-3-3-3--3--3--5-5--5-5--------|

D:|-1-1-1--1---------------------|

end.

Get this song at:  amazon.com sheetmusicplus.com

Share your thoughts

0 Comments found