Fu Manchu

Fu Manchu - Ampn guitar tab

ampn'

by Fu Manchu

from the new album 'california crossing'

transcribed by Christian Reindel (creindel@gmx.de)

any questions or corrections - e-mail me

. -p.m. - note

TUNE DOWN ONE WHOLE STEP

Riff 1 - Intro and Pre-Chorus

D:|----------------------------------|

A:|----------------------------------|

F:|------------------4-4-4-----------|

C:|-6-(6)-----6-4-4--2-2-2--4-5-6----|

G:|-4-(4)-----4-2-2---------2-3-4----|

D:|----------------------------------|

Riff 2

D:|----------------------------------------|

A:|----------------------------------------|

F:|----------------------------------------|

C:|--6-4-6-(6)---6-4-4-(4)---------2-------|

G:|--4-2-4-(4)---4-2-2-(2)---2-3-4---------|

D:|----------------------------------------|

Riff 3 - verse

D:|----------------------------------------------|

A:|----------------------------------------------|

F:|----------------------------------------------|

C:|-6-4-6--------6-4-6--------6-6---4---4-5-6----|

G:|-4-2-4--------4-2-4--------4-4---2---2-3-4----|

D:|---------------------------.-.---.------------|

Riff 2a - Chorus 3 x 1 x

D:|----------------------------------|---------------------------------|

A:|----------------------------------|---------------------------------|

F:|----------------------------------|-6-6-6-(6)----6-4-4-(4)----------|

C:|--6-4-6-(6)---6-4-4-(4)--------2--|-4-4-4-(4)----4-2-2-(2)--------2-|

G:|--4-2-4-(4)---4-2-2-(2)--2-3-4----|-------------------------2-3-4---|

D:|----------------------------------|---------------------------------|

Fill1

D:|----------|

A:|----------|

F:|----------|

C:|-------2--|

G:|-2-3-4----|

D:|----------|

Riff 4 - under guitarsolo

D:|--------------------------------------------------------------|

A:|--------------------------------------------------------------|

F:|--------------------------------------------------------------|

C:|-6-6-6-6-6-6-6-6-6-6-6-6-6-6-6-4-4-4-4-4-4-4-4-4-4-4-4-4-4-4--|

G:|-4-4-4-4-4-4-4-4-4-4-4-4-4-4-4-2-2-2-2-2-2-2-2-2-2-2-2-2-2-2--|

D:|--------------------------------------------------------------|

end riff 4

D:|---------------------------------------------------------------|

A:|---------------------------------------------------------------|

F:|-4-4-4-4-4-4-4-4-4-4-4-4-4-4-4-4-6-6-6-6-6-6-6-6-6-6-6-6-6-6-6-|

C:|-2-2-2-2-2-2-2-2-2-2-2-2-2-2-2-2-4-4-4-4-4-4-4-4-4-4-4-4-4-4-4-|

G:|---------------------------------------------------------------|

D:|---------------------------------------------------------------|

song structure:

Riff 1 - 2 times

Riff 2 - 2 times

Riff 3 - verse 1

Riff 1 - 2 times

Riff 2a

Riff 3 - verse 2

Riff 1 - 2 times

Riff 2a

Riff 4 - 3 times

Fill 1 - 1 time

Riff 2 - 4 times

Riff 2a

Riff 3 - 2 times

end.

Get this song at:  amazon.com sheetmusicplus.com

Share your thoughts

0 Comments found