French dudes

French dudes - R i p bass tab

From: "louis d"

Subject: f/french_dudes/r_i_p.btab

Date: Wed, 21 Nov 2001 22:12:09 +0000

artist : french dudes

song : R.I.P. Zone

Tabber : Louis Is (lllouis@hotmail.com)

Riff 1

|------------------------------------------|

|------------------------------------------|

|-4-5-4-2-4-------------7-9-7-6-7----------|

|-----------4-5-7-5-4-5-----------7-9-7-5-7|

Riff 2

|---------------------|

|---------------------|

|--4-------7----------|

|----4--5------7------|

Chorus

|--------------------|

|--------------------|

|--7---5---3---------|

|--------------5-----|

Order

Riff 1

Riff 2

Chorus

(Riff 2 at the end)

Get this song at:  amazon.com sheetmusicplus.com

Share your thoughts

0 Comments found