Franz Ferdinand

Franz Ferdinand - Matinee guitar tab

THE DARK OF THE MATINE�

As recorded by Franz Ferdinand

(From the 2004 Album FRANZ FERDINAND)

Words and Music by Franz Ferdinand

Transcribed by y01mtovey@ashlawn.org.uk

Intro

Q=120

N.C.

4/4

Gtr I

|---------------------------------|---------------------------------|

|---------------------------------|---------------------------------|

|---------------------------------|---------------------------------|

|---------(2)-(0)---------(2)-(0)-|---------(2)-(0)---------(2)-(0)-|

|-(4)-(4)---------(4)-(4)---------|-(4)-(4)---------(4)-(4)---------|

|---------------------------------|---------------------------------|

$

C# B

||------------------|-----------------|-----------------|------------------||

||o-----------------|-----------------|-----------------|-----------------o||

||------------------|-----------------|-----------------|-----2-0---2-1----||

||------2-0-----2-0-|-----2-0-----2-0-|-------0-----0-2-|-4-4-----4-----4--||

||o-4-4-----4-4-----|-4-4-----4-4-----|-2-2-4---2-4-----|-----------------o||

||------------------|-----------------|-----------------|------------------||

Verse

E/C# C#madd11/B F#m

> >

|-^4--------|-(4)------------|--2---------|-(2)------------|

|-^5--------|-(5)------------|--2---------|-(2)------------|

|-^6--------|-(6)------------|--2---------|-(2)------------|

|-----------|--4-------------|--4---------|-(4)------------|

|-----------|--2-------------|------------|----------------|

|-----------|----------------|------------|----------------|

|

| Gtr II

|-----------|----------------|------------|----------------|

|-----------|----------------|------------|----------------|

|-----------|--1-------------|------------|----------------|

|-----------|------4--2--1---|------------|----------------|

|--4--------|--------------4-|-(4)--------|---------0--2---|

|-----------|----------------|------------|--2---4---------|

To Coda

E/C# C#madd11/B F#m

> >

|-^4--------|-(4)------------|--2---------|-(2)------------|

|-^5--------|-(5)------------|--2---------|-(2)------------|

|-^6--------|-(6)------------|--2---------|-(2)------------|

|-----------|--4-------------|--4---------|-(4)------------|

|-----------|--2-------------|------------|----------------|

|-----------|----------------|------------|----------------|

|

|-----------|----------------|------------|----------------|

|-----------|----------------|------------|----------------|

|-----------|--1-------------|------------|------1--2--4---|

|-----------|------4--2--1-4-|-(4)--------|--4-------------|

|--4--------|----------------|------------|----------------|

|-----------|----------------|------------|----------------|

Pre-Chorus

A/E E

Gtr II Gtr I

> >

|-----------------|-------------------|------------------|--------------------|

|-----------------|-------------------|-^9---------------|-(9)----------------|

|-6---------------|-(6)---------------|-^9---------------|-(9)----------------|

|-----------------|-------------------|-^9---------------|-(9)----------------|

|-----------------|-------------------|------------------|--------------------|

|-----------------|-------------------|------------------|--------------------|

|

| Gtr IV

|-----------------|-------------------|------------------|--------------------|

|-2-2-2-2-2-2-2-2-|--2--2-2-2-2-2-2-2-|--0-0-0-0-0-0-0-0-|--0--0-0-0-0-0-0-0--|

|-2-2-2-2-2-2-2-2-|--2--2-2-2-2-2-2-2-|--1-1-1-1-1-1-1-1-|--1--1-1-1-1-1-1-1--|

|-2-2-2-2-2-2-2-2-|--2--2-2-2-2-2-2-2-|--2-2-2-2-2-2-2-2-|--2--2-2-2-2-2-2-2--|

|-----------------|-------------------|------------------|--------------------|

|-----------------|-------------------|------------------|--------------------|

|

| Gtr III

|-----------------|-------------------|------------------|--------------------|

|-2-2-----2-2-----|--2--2-----2-2-----|--0-0-----0-0-----|--0--0-----0-0------|

|-2-2-----2-2-----|--2--2-----2-2-----|--1-1-----1-1-----|--1--1-----1-1------|

|-2-2-----2-2-----|--2--2-----2-2-----|--2-2-----2-2-----|--2--2-----2-2------|

|-0-0-----0-0-----|--0--0-----0-0-----|--2-2-----2-2-----|--2--2-----2-2------|

|-----------------|-------------------|------------------|--------------------|

Bm

|-2-2-------2-2--------|-2---2-------2-2--------|

|-3-3-------3-3--------|-3---3-------3-3--------|

|-4-4-------4-4--------|-4---4-------4-4--------|

|-4-4-------4-4--------|-4---4-------4-4--------|

|-2-2-------2-2--------|-2---2-------2-2--------|

|----------------------|------------------------|

|

| Gtr III

|-7-7-x-7-x-7-x-7--x-7-|-7-7-7-x-7-x-7-x-7--x-7-|

|-7-7-x-7-x-7-x-7--x-7-|-7-7-7-x-7-x-7-x-7--x-7-|

|-7-7-x-7-x-7-x-7--x-7-|-7-7-7-x-7-x-7-x-7--x-7-|

|----------------------|------------------------|

|----------------------|------------------------|

|----------------------|------------------------|

D5/A

|----------------------------|-------------------------------|

|--3--3---------3-3----------|--3-----3---------3-3----------|

|--2--2---------2-2----------|--2-----2---------2-2----------|

|--0--0---------0-0----------|--0-----0---------0-0----------|

|--0--0---------0-0----------|--0-----0---------0-0----------|

|----------------------------|-------------------------------|

|

|-10-10-x-10-x-10-x-10--x-10-|-10-10-10-x-10-x-10-x-10--x-10-|

|-10-10-x-10-x-10-x-10--x-10-|-10-10-10-x-10-x-10-x-10--x-10-|

|-11-11-x-11-x-11-x-11--x-11-|-11-11-11-x-11-x-11-x-11--x-11-|

|----------------------------|-------------------------------|

|----------------------------|-------------------------------|

|----------------------------|-------------------------------|

Chorus

Bm

||--2--2------------2--2-----------|-2----2------------2--2-----------|

||o-3--3------------3--3-----------|-3----3------------3--3-----------|

||--4--4------------4--4-----------|-4----4------------4--4-----------|

||--4--4------------4--4-----------|-4----4------------4--4-----------|

||o-2--2------------2--2-----------|-2----2------------2--2-----------|

||---------------------------------|----------------------------------|

|

||--7--7--x-7----x--7--x-7----x--7-|-7-7--7--x-7----x--7--x-7----x--7-|

||o-7--7--x-7----x--7--x-7----x--7-|-7-7--7--x-7----x--7--x-7----x--7-|

||--7--7--x-7----x--7--x-7----x--7-|-7-7--7--x-7----x--7--x-7----x--7-|

||---------------------------------|----------------------------------|

||o--------------------------------|----------------------------------|

||---------------------------------|----------------------------------|

|

| Gtr V

||-------17--------19------17------|--------17--------19------17------|

||o---19------19------19--------19-|-----19------19------19--------19-|

||-------14--------16------14------|--------14--------16------14------|

||----16------16------16--------16-|-----16------16------16--------16-|

||o--------------------------------|----------------------------------|

||---------------------------------|----------------------------------|

D5/A

|-----------------------------------|------------------------------------------||

|--3--3-------------3--3------------|--3-----3-------------3--3---------------o||

|--2--2-------------2--2------------|--2-----2-------------2--2----------------||

|--0--0-------------0--0------------|--0-----0-------------0--0----------------||

|--0--0-------------0--0------------|--0-----0-------------0--0---------------o||

|-----------------------------------|------------------------------------------||

|

|-10-10--x-10----x-10--x-10----x-10-|-10-10-10--x-10----x-10--x-10----x-10-----||

|-10-10--x-10----x-10--x-10----x-10-|-10-10-10--x-10----x-10--x-10----x-10----o||

|-11-11--x-11----x-11--x-11----x-11-|-11-11-11--x-11----x-11--x-11----x-11-----||

|-----------------------------------|------------------------------------------||

|-----------------------------------|-----------------------------------------o||

|-----------------------------------|------------------------------------------||

|

|-------17---------19-------17------|----------17---------19-------17----------||

|----19-------19------19---------19-|-------19-------19------19---------19----o||

|-------14---------16-------14------|----------14---------16-------14----------||

|----16-------16------16---------16-|-------16-------16------16---------16-----||

|-----------------------------------|-----------------------------------------o||

|-----------------------------------|------------------------------------------||

Post Chorus

D.S. al Coda

A C#m B F#m

|---------------|----------------|--------------|

|-^2------------|-(2)------------|-(2)----------|

|-^2------------|-(2)------------|-(2)----------|

|-^2------------|-(2)------------|-(2)----------|

|-^0------------|-(0)------------|-(0)----------|

|---------------|----------------|--------------|

|

| Gtr II

|---------------|----------------|-^2-----^2----|

|-----2--5-2--5-|------2--5-2--2-|-^4-----^2----|

|---------------|----------------|-^4-----^2----|

|---------------|----------------|-^4-----^4----|

|---------------|----------------|--------------|

|---------------|----------------|--------------|

|

| Gtr III

|---------------|----------------|-^2-----^2----|

|-^2------------|-^5-------------|-^4-----^2----|

|-^2------------|-^6-------------|-^4-----^2----|

|-^2------------|-^6-------------|-^4-----^4----|

|-^0------------|-^4-------------|-^2-----^4----|

|---------------|----------------|--------^2----|

Verse 2

&

F#m F#m/A

Gtr I

> >

|-(2)-----------|----------|----------|-2--------|-(2)-------------|

|-(2)-----------|----------|----------|-2--------|-(2)-------------|

|-(2)-----------|----------|----------|-2--------|-(2)-------------|

|-(4)-----------|----------|----------|----------|-----------------|

|---------------|----------|----------|----------|-----------------|

|---------------|----------|----------|----------|-----------------|

|

| Gtr II

|---------------|----------|----------|----------|-----------------|

|---------------|----------|----------|----------|-----------------|

|------1--2-----|----------|----------|----------|------1--2--4----|

|--4------------|-2--------|-2--------|----------|--4--------------|

|------------4--|----------|----------|----------|-----------------|

|---------------|----------|----------|----------|-----------------|

Pre-Chorus

A/E E/B

Gtr II

>

|-----------------|------------------|-----------------|------------------|

|-----------------|------------------|-----------------|------------------|

|-6---------------|-(6)--------------|-----------------|------------------|

|-----------------|------------------|-----------------|------------------|

|-----------------|------------------|-----------------|------------------|

|-----------------|------------------|-----------------|------------------|

|

| Gtr III

|-----------------|------------------|-----------------|------------------|

|-2-2-2-2-2-2-2-2-|--2--2-2-2-2-2-2S=|=9-9-9-9-9-9-9-9-|-9-9-9-9-9-9-9-9--|

|-2-2-2-2-2-2-2-2-|--2--2-2-2-2-2-2S=|=9-9-9-9-9-9-9-9-|-9-9-9-9-9-9-9-9--|

|-2-2-2-2-2-2-2-2-|--2--2-2-2-2-2-2S=|=9-9-9-9-9-9-9-9-|-9-9-9-9-9-9-9-9--|

|-----------------|------------------|-----------------|------------------|

|-----------------|------------------|-----------------|------------------|

|

| Gtr I

|-----------------|------------------|-----------------|------------------|

|-2-2-----2-2-----|--2--2-----2-2----|-0-0-----0-0-----|-0-0-----0-0------|

|-2-2-----2-2-----|--2--2-----2-2----|-1-1-----1-1-----|-1-1-----1-1------|

|-2-2-----2-2-----|--2--2-----2-2----|-2-2-----2-2-----|-2-2-----2-2------|

|-0-0-----0-0-----|--0--0-----0-0----|-2-2-----2-2-----|-2-2-----2-2------|

|-----------------|------------------|-----------------|------------------|

Bm

Gtr I

|-2-2-------2-2--------|-2---2-------2-2--------|

|-3-3-------3-3--------|-3---3-------3-3--------|

|-4-4-------4-4--------|-4---4-------4-4--------|

|-4-4-------4-4--------|-4---4-------4-4--------|

|-2-2-------2-2--------|-2---2-------2-2--------|

|----------------------|------------------------|

|

| Gtr III

|-7-7-x-7-x-7-x-7--x-7-|-7-7-7-x-7-x-7-x-7--x-7-|

|-7-7-x-7-x-7-x-7--x-7-|-7-7-7-x-7-x-7-x-7--x-7-|

|-7-7-x-7-x-7-x-7--x-7-|-7-7-7-x-7-x-7-x-7--x-7-|

|----------------------|------------------------|

|----------------------|------------------------|

|----------------------|------------------------|

D5/A

|----------------------------|-------------------------------|

|--3--3---------3-3----------|--3-----3---------3-3----------|

|--2--2---------2-2----------|--2-----2---------2-2----------|

|--0--0---------0-0----------|--0-----0---------0-0----------|

|--0--0---------0-0----------|--0-----0---------0-0----------|

|----------------------------|-------------------------------|

|

|-10-10-x-10-x-10-x-10--x-10-|-10-10-10-x-10-x-10-x-10--x-10-|

|-10-10-x-10-x-10-x-10--x-10-|-10-10-10-x-10-x-10-x-10--x-10-|

|-11-11-x-11-x-11-x-11--x-11-|-11-11-11-x-11-x-11-x-11--x-11-|

|----------------------------|-------------------------------|

|----------------------------|-------------------------------|

|----------------------------|-------------------------------|

Chorus

Bm

||--2--2------------2--2-----------|-2----2------------2--2-----------|

||o-3--3------------3--3-----------|-3----3------------3--3-----------|

||--4--4------------4--4-----------|-4----4------------4--4-----------|

||--4--4------------4--4-----------|-4----4------------4--4-----------|

||o-2--2------------2--2-----------|-2----2------------2--2-----------|

||---------------------------------|----------------------------------|

|

||--7--7--x-7----x--7--x-7----x--7-|-7-7--7--x-7----x--7--x-7----x--7-|

||o-7--7--x-7----x--7--x-7----x--7-|-7-7--7--x-7----x--7--x-7----x--7-|

||--7--7--x-7----x--7--x-7----x--7-|-7-7--7--x-7----x--7--x-7----x--7-|

||---------------------------------|----------------------------------|

||o--------------------------------|----------------------------------|

||---------------------------------|----------------------------------|

|

| Gtr V

||-------17--------19------17------|--------17--------19------17------|

||o---19------19------19--------19-|-----19------19------19--------19-|

||-------14--------16------14------|--------14--------16------14------|

||----16------16------16--------16-|-----16------16------16--------16-|

||o--------------------------------|----------------------------------|

||---------------------------------|----------------------------------|

D5/A

|-----------------------------------|------------------------------------------||

|--3--3-------------3--3------------|--3-----3-------------3--3---------------o||

|--2--2-------------2--2------------|--2-----2-------------2--2----------------||

|--0--0-------------0--0------------|--0-----0-------------0--0----------------||

|--0--0-------------0--0------------|--0-----0-------------0--0---------------o||

|-----------------------------------|------------------------------------------||

|

|-10-10--x-10----x-10--x-10----x-10-|-10-10-10--x-10----x-10--x-10----x-10-----||

|-10-10--x-10----x-10--x-10----x-10-|-10-10-10--x-10----x-10--x-10----x-10----o||

|-11-11--x-11----x-11--x-11----x-11-|-11-11-11--x-11----x-11--x-11----x-11-----||

|-----------------------------------|------------------------------------------||

|-----------------------------------|-----------------------------------------o||

|-----------------------------------|------------------------------------------||

|

|-------17---------19-------17------|----------17---------19-------17----------||

|----19-------19------19---------19-|-------19-------19------19---------19----o||

|-------14---------16-------14------|----------14---------16-------14----------||

|----16-------16------16---------16-|-------16-------16------16---------16-----||

|-----------------------------------|-----------------------------------------o||

|-----------------------------------|------------------------------------------||

Post Chorus

A C#m B F#m

|---------------|----------------|--------------|

|-^2------------|-(2)------------|-(2)----------|

|-^2------------|-(2)------------|-(2)----------|

|-^2------------|-(2)------------|-(2)----------|

|-^0------------|-(0)------------|-(0)----------|

|---------------|----------------|--------------|

|

| Gtr II

|---------------|----------------|-^2-----^2----|

|-----2--5-2--5-|------2--5-2--2-|-^4-----^2----|

|---------------|----------------|-^4-----^2----|

|---------------|----------------|-^4-----^4----|

|---------------|----------------|--------------|

|---------------|----------------|--------------|

|

| Gtr III

|---------------|----------------|-^2-----^2----|

|-^2------------|-^5-------------|-^4-----^2----|

|-^2------------|-^6-------------|-^4-----^2----|

|-^2------------|-^6-------------|-^4-----^4----|

|-^0------------|-^4-------------|-^2-----^4----|

|---------------|----------------|--------^2----|

Verse 3

Q=70

E/C# C#madd11/B F#m

3/4

> >

|-^4------|-(4)---------|-2------|-(2)---------|

|-^5------|-(5)---------|-2------|-(2)---------|

|-^6------|-(6)---------|-2------|-(2)---------|

|---------|--4----------|-4------|-(4)---------|

|---------|--2----------|--------|-------------|

|---------|-------------|--------|-------------|

|

| Gtr II

|---------|-------------|--------|-------------|

|---------|-------------|--------|-------------|

|---------|--1----------|--------|-------------|

|---------|------4--2-1-|--------|-------------|

|--4------|-------------|-4------|---------0-2-|

|---------|-------------|--------|--2---4------|

E/C# C#madd11/B F#m

> >

|-^4------|-(4)---------|-2------|-(2)---------|

|-^5------|-(5)---------|-2------|-(2)---------|

|-^6------|-(6)---------|-2------|-(2)---------|

|---------|--4----------|-4------|-(4)---------|

|---------|--2----------|--------|-------------|

|---------|-------------|--------|-------------|

|

|---------|-------------|--------|-------------|

|---------|-------------|--------|-------------|

|---------|--1----------|--------|------1--2-4-|

|---------|------4--2-1-|-4------|--4----------|

|--4------|-------------|--------|-------------|

|---------|-------------|--------|-------------|

H=H

A/E E

|--------|----------|---------|--------------|

|-2------|-(2)------|--0------|-(0)----------|

|-2------|-(2)------|--1------|-(1)----------|

|-2------|-(2)------|--2------|-(2)----------|

|--------|----------|---------|--------------|

|--------|----------|---------|--------------|

|

|--------|----------|---------|--------------|

|--------|--2-------|-^9------|--9-----(9)-9-|

|-6------|--2-------|-^9------|--9-----(9)-9-|

|--------|--2-------|-^9------|--9-----(9)---|

|--------|----------|---------|--------------|

|--------|----------|---------|--------------|

Q=120

Bm/D

4/4

Gtr III

|-7-7-x-7-x-7-x-7-x-7-|-7-7-7-x-7-x-7-x-7-x-7-|

|-7-7-x-7-x-7-x-7-x-7-|-7-7-7-x-7-x-7-x-7-x-7-|

|-7-7-x-7-x-7-x-7-x-7-|-7-7-7-x-7-x-7-x-7-x-7-|

|---------------------|-----------------------|

|---------------------|-----------------------|

|---------------------|-----------------------|

D/F#

|-10-10-x-10-x-10-x-10-x-10-|-10-10-10-x-10-x-10-x-10-x-10----|

|-10-10-x-10-x-10-x-10-x-10-|-10-10-10-x-10-x-10-x-10-x-10----|

|-11-11-x-11-x-11-x-11-x-11-|-11-11-11-x-11-x-11-x-11-x-11----|

|---------------------------|---------------------------------|

|---------------------------|---------------------------------|

|---------------------------|---------------------------------|

Chorus

Bm

Gtr I

||--2--2------------2--2-----------|-2----2------------2--2-----------|

||o-3--3------------3--3-----------|-3----3------------3--3-----------|

||--4--4------------4--4-----------|-4----4------------4--4-----------|

||--4--4------------4--4-----------|-4----4------------4--4-----------|

||o-2--2------------2--2-----------|-2----2------------2--2-----------|

||---------------------------------|----------------------------------|

|

| Gtr III

||--7--7--x-7----x--7--x-7----x--7-|-7-7--7--x-7----x--7--x-7----x--7-|

||o-7--7--x-7----x--7--x-7----x--7-|-7-7--7--x-7----x--7--x-7----x--7-|

||--7--7--x-7----x--7--x-7----x--7-|-7-7--7--x-7----x--7--x-7----x--7-|

||---------------------------------|----------------------------------|

||o--------------------------------|----------------------------------|

||---------------------------------|----------------------------------|

|

| Gtr V

||-------17--------19------17------|--------17--------19------17------|

||o---19------19------19--------19-|-----19------19------19--------19-|

||-------14--------16------14------|--------14--------16------14------|

||----16------16------16--------16-|-----16------16------16--------16-|

||o--------------------------------|----------------------------------|

||---------------------------------|----------------------------------|

D5/A

4x

|-----------------------------------|------------------------------------------||

|--3--3-------------3--3------------|--3-----3-------------3--3---------------o||

|--2--2-------------2--2------------|--2-----2-------------2--2----------------||

|--0--0-------------0--0------------|--0-----0-------------0--0----------------||

|--0--0-------------0--0------------|--0-----0-------------0--0---------------o||

|-----------------------------------|------------------------------------------||

|

| 4x

|-10-10--x-10----x-10--x-10----x-10-|-10-10-10--x-10----x-10--x-10----x-10-----||

|-10-10--x-10----x-10--x-10----x-10-|-10-10-10--x-10----x-10--x-10----x-10----o||

|-11-11--x-11----x-11--x-11----x-11-|-11-11-11--x-11----x-11--x-11----x-11-----||

|-----------------------------------|------------------------------------------||

|-----------------------------------|-----------------------------------------o||

|-----------------------------------|------------------------------------------||

|

| 4x

|-------17---------19-------17------|----------17---------19-------17----------||

|----19-------19------19---------19-|-------19-------19------19---------19----o||

|-------14---------16-------14------|----------14---------16-------14----------||

|----16-------16------16---------16-|-------16-------16------16---------16-----||

|-----------------------------------|-----------------------------------------o||

|-----------------------------------|------------------------------------------||

Outro

A C#m B F#m

Gtr I

|---------------|----------------|----------------|

|-^2------------|-(2)------------|-(2)------------|

|-^2------------|-(2)------------|-(2)------------|

|-^2------------|-(2)------------|-(2)------------|

|-^0------------|-(0)------------|-(0)------------|

|---------------|----------------|----------------|

|

| Gtr II

|---------------|----------------|----------------|

|-----2--5-2--5-|------2--5-2--5-|------4---7--9--|

|---------------|----------------|----------------|

|---------------|----------------|----------------|

|---------------|----------------|----------------|

|---------------|----------------|----------------|

|

| Gtr III

|---------------|----------------|-^2------^2-----|

|-^2------------|-^5-------------|-^4------^2-----|

|-^2------------|-^6-------------|-^4------^2-----|

|-^2------------|-^6-------------|-^4------^4-----|

|-^0------------|-^4-------------|-^2------^4-----|

|---------------|----------------|---------^2-----|

C#m

|-----------|------------|------------|--------*|

|-^5--------|-(5)--------|-(5)--------|-(5)----*|

|-^6--------|-(6)--------|-(6)--------|-(6)----*|

|-^6--------|-(6)--------|-(6)--------|-(6)----*|

|-^4--------|-(4)--------|-(4)--------|-(4)----*|

|-----------|------------|------------|--------*|

|

|-----------|------------|------------|--------*|

|--2--------|-(2)--------|-(2)--------|-(2)----*|

|-----------|------------|------------|--------*|

|-----------|------------|------------|--------*|

|-----------|------------|------------|--------*|

|-----------|------------|------------|--------*|

Tablature Legend

----------------

h - hammer-on

p - pull-off

b - bend

pb - pre-bend

r - bend release (if no number after the r, then release immediately)

/\ - slide into or out of (from/to "nowhere")

s - legato slide

S - shift slide

- natural harmonic

[n] - artificial harmonic

n(n) - tapped harmonic

~ - vibrato

tr - trill

T - tap

TP - trem. picking

PM - palm muting

\n/ - tremolo bar dip; n = amount to dip

\n - tremolo bar down

n/ - tremolo bar up

/n\ - tremolo bar inverted dip

= - hold bend; also acts as connecting device for hammers/pulls

- volume swell (louder/softer)

x - on rhythm slash represents muted slash

o - on rhythm slash represents single note slash

Misc Legend

-----------

| - bar

|| - double bar

||o - repeat start

o|| - repeat end

*| - double bar (ending)

: - bar (freetime)

$ - Segno

& - Coda

Tempo markers - = BPM(8/16=s8/s16), where s8 = swing 8ths, s16 = swing 16ths

That�s it!

Get this song at:  amazon.com sheetmusicplus.com

Share your thoughts

Comments