Franz Ferdinand

Franz Ferdinand - 40 Ft bass tab

Intro

G-------------|

D------55-----|

A--3------0-3-|

E-------------|

Chorus

G-----------------------|

D-------3h5p3h5p3h5p3h5-|

A-0h3333----------------|

E-----------------------|

During the last 2 chorus of the song add the following at the end...

D-88888888

Verse

G------------------------------------------|

D----5-5---3-3---5-5---3-35555555555555555-|

A-3-3---3-3---3-3---3-3--------------------|

E------------------------------------------|

G--------|

D--5---5-|

A-3-oh5--|

E--------|

Pre-chorus

D-3333333333333333

Solo

G---------------------------------|

D----5-5------------5-5-8-8888888-|

A-3-3---3-3-5-5-3-3---------------|

E---------------------------------|

its a good song

see you

Get this song at:  amazon.com sheetmusicplus.com

Share your thoughts

0 Comments found