Foo Fighters

Foo Fighters - Monkey Wrench (studio Version And Live Variation) guitar tab

2. Monkey Wrench

tuning: D a d g b e

Intro

e||-----------------------------------------------------------------------||

B||--7-7-5-5-4-4-----5-5-4-4----------------------------------------------||

G||--------------6-6---------6-6-4-4-6-6-4-4-----4-4-6-6--4-4--6b1/2-6-4--||

D||------------------------------------------6-6--------------------------||

A||-----------------------------------------------------------------------||

D||-----------------------------------------------------------------------||

This little riff is only played live. Barre with your index on

the 7th fret

and use your ring finger to play the variations...

e||--7-7----7-7----7-7---|-7-7-10--7-10--7-9h10p9-7--||

B||--7-7-9--7-7-9--7-7-9-|-7-7-10--7-10--7-9h10p9-7--||

G||------9------9------9-|---------------------------||

D||----------------------|---------------------------||

A||----------------------|---------------------------||

D||----------------------|---------------------------||

Verse

PM------------------------------------------------|

e||--------------------------------------------------------------------||

B||--------------------------------------------------------------------||

G||--4--4-4-4-4-4-4-4-4-4----------------------------------------------||

D||--4--4-4-4-4-4-4-4-4-4--4-4-4-4-2-2-2-2-2-2-2-2-2-2-2-2--0-2-0-2-0--||

A||--2--2-2-2-2-2-2-2-2-2--4-4-4-4-2-2-2-2-2-2-2-2-2-2-2-2--0-2-0-2-0--||

E||------------------------4-4-4-4-2-2-2-2-2-2-2-2-2-2-2-2--0-2-0-2-0--||

"What have we done with innocence..."

Pre-Chorus

e||------------------------------||

B||------------------------------||

G||------------------------------||

D||--2--2-2-0--2--2-2-0-2-0-2-0--||

A||--2--2-2-0--2--2-2-0-2-0-2-0--||

E||--2--2-2-0--2--2-2-0-2-0-2-0--||

"One in ten..."

Chorus

e||----------------------------------------||

B||----------------------------------------||

G||--4--4-4-4---------------------------5--||

D||--4--4-4-4--6--6-6--6-6-4-2---4-2-4--5--||

A||--2--2-2-2--6--6-6--6-6-4-2---4-2-4--3--||

E||------------6--6-6--6-6-4-2---4-2-4-----||

"Don't want to be your monkey wrench"

Bridge

(Gtr. 1)

e||------------------------------------------------------------||

B||------------------------------------------------------------||

G||------9-----------------------------------------------------||

D||--6-6-9-9--5-5-5-5-5-5-5--4-2-2-2-2-2-2-2--4-2-2-2-2-2-2-2--||

A||--6-6-7-9--5-5-5-5-5-5-5--4-2-2-2-2-2-2-2--4-2-2-2-2-2-2-2--||

E||--6-6---9--5-5-5-5-5-5-5--4-2-2-2-2-2-2-2--4-2-2-2-2-2-2-2--||

"Temper..." ||

||

(Gtr. 2) ||

e||------------------------------------------------------------||

B||------------------------------------------------------------||

G||------9-------------------4-4-4-4-4-4-4-4--4-4-4-4-4-4-4-4--||

D||--6-6-9-9--5-5-5-5-5-5-5--x-x-x-x-x-x-x-x--x-x-x-x-x-x-x-x--||

A||--6-6-7-9--5-5-5-5-5-5-5--2-2-2-2-2-2-2-2--2-2-2-2-2-2-2-2--||

E||--6-6---9--5-5-5-5-5-5-5------------------------------------||

(Gtr. 1)

e||-----------------------------------------------------------------||

B||-----------------------------------------------------------------||

G||--4-4-4-4-4-4-4-4-4-4--------------------------------------------||

D||--4-4-4-4-4-4-4-4-4-4-4-4-4-4-2-2-2-2-2-2-2-2-2-2-2-2-0-2-0-2-0--||

A||--2-2-2-2-2-2-2-2-2-2-4-4-4-4-2-2-2-2-2-2-2-2-2-2-2-2-0-2-0-2-0--||

E||----------------------4-4-4-4-2-2-2-2-2-2-2-2-2-2-2-2-0-2-0-2-0--||

"One last thing before I quit..." ||

||

(Gtr. 2) ||

e||-----------------------------------------------------------------||

B||-----------------------------------------------------------------||

G||--4-4-4-4-4-4-4-4-4-4--------------------------------------------||

D||--x-x-x-x-x-x-x-x-x-x--------------------------------------------||

A||--2-2-2-2-2-2-2-2-2-2--------------------------------------------||

E||-----------------------------------------------------------------||

----------------------------------------------------------------------------

Get this song at:  amazon.com sheetmusicplus.com

Share your thoughts

0 Comments found